Stabbing Westward - I Dont Believe Chords & Tabs

 

I Dont Believe Chords & Tabs

Stabbing Westward Chords & Tabs

Version: 1 Type: Tab 0 ratings
1 star 2 stars 3 stars 4 stars 5 stars
comments

I Dont Believe Tab

   
I Don't Believe by Stabbing Westward

Tabbed by Dave Bloom

mizar_alcor@yahoo.com


If there is one song that pissed me off the most trying to tab
it is this one, and I still don't have all of it.  So I decided
to throw it out the the world.  I have 95% of the song.  The intro
is what got me, I have half of it, but maybe you guys can help me 
get the rest if I get you started... please help...

Tuning

D
A
D
G
B
e


Intro...

------------------
------------------
------------------
-2/3--2--3-?-?----
-2/3--2--3-?-?----
-2/3--2--3-?-?----


Verse...

---------------------
---------------------
---------------------
-2-2-2-0-2-2/-10-10--
-2-2-2-0-2-2/-10-10--
-2-2-2-0-2-2/-10-10--

Break...

---------------------------
---------------------------
---2--2--2--2--2--2--2--2--
--0--0--0--0--0--0--0--0---
-0--0--2--2--1--2--2--1----
---------------------------

Then...

A few times, then...
-------------------------------------------
-------------------------------------------
-------------------------------------------
-0-0-0-0-2-2-2-2----5-5-5-5-7-7-7-7--------
-0-0-0-0-2-2-2-2----5-5-5-5-7-7-7-7--------
-0-0-0-0-2-2-2-2----5-5-5-5-7-7-7-7--------


Words...

  I'm such an asshole

  God i'm such a stain
[ Tab from: http://www.guitartabs.cc/tabs/s/stabbing_westward/i_dont_believe_tab.html ]
  I just keep ***ing up, again and again

  I don't believe

  I don't believe

  That I could be so stupid and so naive

  I don't believe

  I don't believe

  That there is nothing, nothing left for me

  You crawled inside my mind

  When you crawled into my bed

  Said everything, i've ever longed to hear

  So perfect, so alive, once inside you sucked me dry

  Used me up and left me hear for death

  I don't believe

  I don't believe

  That I could be so stupid and so naive

  I don't believe

  I don't believe

  That there is nothing, nothing left for me

  I crave it desperately

  A cancer eating me

  An addiction to intense to be denied

  Worthless, i'm a whore, crawling back for more

  Pathetic how I feed off this abuse

  I don't believe

  I don't believe

  That I could be so stupid and so naive

  I don't believe

  I don't believe

  That there is nothing, nothing left for me

  You told me that you loved me

  I believe you loved me

  You swore that you loved me

  And I believed

  Now I know it was a lie

  Now I know it was a lie

  Now I know it was a lie

  I don't believe

  I don't believe

  That I could be so stupid and so naive

  I don't believe

  I don't believe

  That there's nothing, nothing left for me


Comments