Stabbing Westward - Everything I Touch Chords & Tabs

 

Everything I Touch Chords & Tabs

Stabbing Westward Chords & Tabs

Version: 1 Type: Bass Tab 0 ratings
1 star 2 stars 3 stars 4 stars 5 stars
comments

Everything I Touch Bass Tab

STABBING WESTWARD
EVERYTHING I TOUCH
TABBED BY JON RAZEE

THIS IS THE WAY I PLAY IT.
LISTEN TO THE SONG TO FIND THE ORDER.

RIFF 1                                                                  
------------------------------------------------------------------------
------------------------------------------------------------------------
------------------------------------------------------------------------
2-----2-----2-----2--2--4-----4-----4-----4--4--5-----5-----5-----5-----
                                                                        

   * FILL STARTS HERE       3x                                          
----------------------------||------------------------------------------
---------------------------*||------------------------------------------
---------------------------*||------------------------------------------
5--3-----3-----3-----3--3---||------------------------------------------
                                                                        
[ Tab from: http://www.guitartabs.cc/tabs/s/stabbing_westward/everything_i_touch_btab.html ]
FILL 1                                                                  
------------------------------------------------------------------------
------------------------------------------------------------------------
------------------------------------------------------------------------
6-----6-----6-----6--6--7^--7^--7^--7^--7^--7^--7^--7^--7^--7^--7^------
                                                                        

                           RIFF 2                        3x             
--------------------||-----------------------------------||-------------
--------------------||----------------------------------*||-------------
--------------------||----------------------------------*||-------------
7^--7^--7^--7^--7^--||--5h7p5--7h9p7--5-----4--4-----4---||-------------
                                                                        

FILL 2                                                                  
-------------------------------------------||---------------------------
-------------------------------------------||---------------------------
-------------------------------------------||---------------------------
3-----3-----3-----3--7-----7--7--7--7h9p7--||---------------------------
                                                                        



========================================================================
==            Created with a demo version of BUCKET O' TAB            ==
==              tablature creation software for Windows               ==
==                   http://www.his.com/~gse/bucket                   ==
========================================================================

Comments