Stabbing Westward - Drugstore Chords & Tabs

 

Drugstore Chords & Tabs

Stabbing Westward Chords & Tabs

Version: 2 Type: Tab 0 ratings
1 star 2 stars 3 stars 4 stars 5 stars
comments

Drugstore Tab

   
Stabbing Westward - Drugstore
Submitted By: Greg Ramirez
EMail: Gutterball438@aol.com

Tuning: Standard (E A D G B E)

Intro:

---------------------------------|
---------------------------------|
---------------------------------|
---------------------------------|
-5-7-7-7-------------------------|
---------6-0-0-0-3-0-0-5-0-0-3-5-|
[ Tab from: http://www.guitartabs.cc/tabs/s/stabbing_westward/drugstore_tab_ver_2.html ]
Verse: Starts with Bass then Guitar kicks in
-----------------------------------|
-----------------------------------|
-----------------------------------|
-----------------------------------|
-----------------------------------|
-0-0-0-0-3-0-0-0-5-0-0-6-0-0-10-12-|
Chorus: 
---------------------------------|
---------------------------------|
-----0-----0---0-----0-----0---0-|
---4-----4----4----4-----4----4--|
-2-----2---------3-----3---------|
---------------------------------|
That's it.  The Screeching notes in the song I believe are 
artificial.  They Are the Eb notes being bended up to E if you
want to add this.
Questions comments email Greg at Gutterball438@aol.com
Comments