Stabbing Westward - Dawn Chords & Tabs

 

Dawn Chords & Tabs

Stabbing Westward Chords & Tabs

Version: 2 Type: Tab 0 ratings
1 star 2 stars 3 stars 4 stars 5 stars
comments

Dawn Tab

   
Dawn by Stabbing Westward

Tabbed by Dave Bloom

mizar_alcor@yahoo.com

This is one helluva great song. It is off the Escape From LA
soundtrack.  I love this song, it is one of my favorites...

Tuning...


Eb
Ab
Db
Gb
Bb
Eb


Intro and verses....

--------------------|
--------------------|
--------------------|
-2-2-2-2-2-2-2-2-0--|
-2-2-2-2-2-2-2-2-3--|
-0-0-0-0-0-0-0-0-3--|

Chorus   (with wah)

-------------------------------------------------------------------|
-------------------------------------------------------------------|
-------------------------------------------------------------------|
-------------------------------------------------------------------|
-0-2-3-5-3-3-3-3-3-5-5-5-5-0-2-3-5-7-7-7-7-7-7-9-9-9-9-9--0-2-3-5--|
-------------------------------------------------------------------|


--------------------------------------------------|
--------------------------------------------------|
--------------------------------------------------|
--------------------------------------------------|
-5-5-5-5-5-7-7-7-7-7-0-2-3-5-3-3-3-3---5-5-5-5-5--|
--------------------------------------------------|

Only play this the 2nd and 3rd choruses...


------------------------------------------------------------------|
------------------------------------------------------------------|
-9-9-9-9-9-9-9-9-11-11-11-11-11-11-11-11-12-12-12-12-12-12-12-12--|
------------------------------------------------------------------|
-7-7-7-7-7-7-7-7-9--9--9--9--9--9--9--9--10-10-10-10-10-10-10-10--|
------------------------------------------------------------------|
[ Tab from: http://www.guitartabs.cc/tabs/s/stabbing_westward/dawn_tab_ver_2.html ]
     Repeat then Play...                    (slide here)
------------------------|----------------------------|
------------------------|----------------------------|
-11-11-11-11-11-11-11-11|-9-9-9-9-9-9-9-9-9-11/12\11-|
------------------------|----------------------------|
-9--9--9--9--9--9--9--9-|-7-7-7-7-7-7-7-7-7-9/-10-\9-|
------------------------|----------------------------|


When the song hasd the feedback at the end...
Play that note, and bend a few times...
----
----
-11-
----
-9--
----


  With the help of my sister I think we got the words almost
exact, but some are probabaly wrong, if you have any corrections
please let me know...

  My angel, my reluctant whore

  Decided she can't take no more

  So lets *** until we fall asleep

  PLease don't wake me when you leave


  Just kiss me before you go

  Kiss me before you go

  Kiss me before you go

  Promise to kiss me before you go


  Funeral but nobody's died

  Dressed in black, black inside

  In the morning you'll be gone

  A stranger that i'll never know

  So please kiss me before you go

  Kiss me before you go

  Kiss me before you go

  Promise to kiss me before you go

  Before you go


  It's to hot now to fall asleep

  So just lie here and watch you breathe

  In the morning you'll be gone

  Like everything i've ever loved


  So just kiss me before you go

  Kiss me before you go

  Kiss me before you go

  Kiss me before you go

  Kiss me before you go

  Kiss me before you go

  Kiss me before you go

  Promise to kiss me before you go

  Before you go

  Before you go

  Before you go

  Kiss me before you go

  Kiss me before you go
Comments