Stabbing Westward - Cant Happen Here Chords & Tabs

 

Cant Happen Here Chords & Tabs

Stabbing Westward Chords & Tabs

Version: 2 Type: Tab 0 ratings
1 star 2 stars 3 stars 4 stars 5 stars
comments

Cant Happen Here Tab

Can't Happen Here
===== ====== ====
By Stabbing Westward
Tabbed By Vance Berisford

Intro bass:
|--------------------------|
|--------------------------|
|-5-5-5-5-5-5-5-6-6-6------|
|--------------------------|

Guitar (2:49)(with slight delay),play twice:
|---------------------------------------------------------|
|---3-----------------------------------------------------|
|-2-------------------------------------------------------|
|------4-5-------6-7--5--2--3(?)--------------------------|
|---------------------------------3-----------------------|
|---------------------------------------------------------|

Heavy Part (6:33)
|---------------------------------------------------------|
|---------------------------------------------------------|
|--7-7-7-7-7-7-7-8-8-8------------------------------------|
|--7-7-7-7-7-7-7-8-8-8------------------------------------|
|--5-5-5-5-5-5-5-6-6-6------------------------------------|
|---------------------------------------------------------|
[ Tab from: http://www.guitartabs.cc/tabs/s/stabbing_westward/cant_happen_here_tab_ver_2.html ]
Then hold:
|--------|
|--------|
|--7-----|
|--7-----|
|--5-----|
|--------|

Questions, Comments, Corrections: Send them to Vanceho@aol.com

#######

Tabbed by:

Brian Kaplan
Darkcrnage@aol.com

		i have a very slight correction for the tab for " can't
         happen here" it is very minor... when the heavy guitar kicks in at 6:33 or
         whatever.. the 577 chord part is right .. but it does that 688 chord twice
         and the 81010 chord twice.. trust me i was playing along with the song a few
         times...

         Can't happen here harder part at 6:33
         ----------------------------------------------------------------------|
         ----------------------------------------------------------------------|
         ---7--7--7-7--7--7--7--7-7--7--7--7--7-7--8-8-10-10-------------------|
         ---7--7--7-7--7--7--7--7-7--7--7--7--7-7--8-8-10-10-------------------|
         ---5--5--5-5--5--5--5--5-5--5--5--5--5-5--6-6-8-8---------------------|
         ----------------------------------------------------------------------|
Comments