Stabbing Westward - Acf Chords & Tabs

 

Acf Chords & Tabs

Stabbing Westward Chords & Tabs

Version: 2 Type: Tab 0 ratings
1 star 2 stars 3 stars 4 stars 5 stars
comments

Acf Tab

ACF

By Stabbing Westward
tabbed by Vance Berisford
Note: I didn't try to express timing or the # of times to 
play each chord, i only showed the chord changes.

Intro bass line:
|---------------------|
|---------------------|
|-0-3-----------------|
|-----2--0-2-0--2--2--|


Chorus
   I think i woke up screaming,(screaming,) 
|--------------------------------------------|
|--------------------------------------------|
|-2-4-----4---4---4---5----------5-----------|
|-2-4-----4---4---4---5---4------5----4------|
|-0h2-----2---2---2---3---4------3----4------|
|-------------------------2-----------2------|

  I had a dream that you still loved me 
|---------------------------------------------|
|---------------------------------------------|
|-5--4--2--4----5-----7-----7---------4-----7-|
|-5--4--2--4----5-----7-----7---------4-----7-|
|-3--2--0--2----3-----5-----5---------2-----5-|
|---------------------------------------------|
[ Tab from: http://www.guitartabs.cc/tabs/s/stabbing_westward/acf_tab_ver_2.html ]
  I think i woke up screaming, 
|-------------------------------|
|-------------------------------|
|-5--4----2---4--2---5----------|
|-5--4----2---4--2---5---4------|
|-3--2----0---2--0---3---4------|
|------------------------2------|

  I think i woke up screaming again
|--------------------------------------------|
|--------------------------------------------|
|--5--5---4--5---5--7-----7--5--7------------|
|--5--5---4--5---5--7-----7--5--7------------|
|--3--3---2--3---3--5-----5--3--5------------|
|--------------------------------------------|

Bridge: (2:51)
 Could this last forever   or will i die
|--------------------------------------------|
|--------------------------------------------|
|--------------------------------------------|   Repeat
|-2-4---4----4----4--5-----5---5---2--2------|
|-2-4---4----4----4--5-----5---5---2--2------|
|-0h2---2----2----2--3-----3---3---0--0------|

Just can i die...
|---|
|---|
|---|
|-2-|   Play this chord over and over.
|-2-|
|-0-|

Questions, comments, corrections?? Send 'em to vanceho@aol.com
Comments