Stab N Grab - Dead Beat Son Chords & Tabs

 

Dead Beat Son Chords & Tabs

Stab N Grab Chords & Tabs

Version: 1 Type: Tab 0 ratings
1 star 2 stars 3 stars 4 stars 5 stars
comments

Dead Beat Son Tab

   
-------------------------------------------------------------------------------
			     Dead beat son - Stab 'n' Grab
-------------------------------------------------------------------------------
Tabbed by: Hannibal_Lectar
Email: Theking28411@yahoo.com

Tuning: standard
Stab 'n' Grab is a local band from USA North Carolina Wilmington
e|---------------------------------------------------------------------------|
B|-------------------VERSE---------------------------------------------------|
G|---------------------------------------------------------------------------|
D|-5-5--7-7------------------------------------------------------------------|repeat 8 times
A|-3-3--5-5--5-5--3-3--------------------------------------------------------|
E|-----------3-3--1-1--------------------------------------------------------|
                                 solo
e|---------------------------------------------------------------------------|
B|---------------------------------------------------------------------------|
G|-6-6-6---------------------------------------------------------------------|
D|-------7-4-----3-4-----7-7-7-6-4---6-6-6-5-4-----6-6-6---------------------|
A|--------------4----------------------------------------7-6-4------3-4------|
E|-------------------------------------------------------------4~~~----------|
[ Tab from: http://www.guitartabs.cc/tabs/s/stab_n_grab/dead_beat_son_tab.html ]
e|---------------------------------------------------------------------------|
B|---------------5-5-5-------------------------------------------------------|
G|----------------------5-4--------------------------------------------------|
D|-7-7-7-6-4-----------------------------------------------------------------|
A|---------------------------------------------------------------------------|
E|---------------------------------------------------------------------------|
                                            Chorus
e|------------------------------|-------5-5----------------------------------|
B|------------------------------|-------5-5----------------------------------|
G|-----repeat verse 8 times-----|-------6-6-----------6-6-6------------------|
D|------------------------------|7-7----7-7------6----6-6-6----repeat 3 times|
A|------------------------------|7-7-------------6---------------------------|
E|------------------------------|5-5-------------4---------------------------|

e|---------------------------------------------------------------------------|
B|---------------------------------------------------------------------------|
G|---repeat verse 8 times----------------------------------------------------|
D|-------------------------then repeat chorus 3 times-----verse again 8 times|
A|---------------------------------------------------------------------------|
E|---------------------------------------------------------------------------|

| /  slide up
| \  slide down
| h  hammer-on
| p  pull-off
| ~  vibrato
| +  harmonic
| x  Mute note
===============================================================================
Comments