Sr-71 - Transparent Sunshine Chords & Tabs

 

Transparent Sunshine Chords & Tabs

Sr-71 Chords & Tabs

Version: 1 Type: Tab 0 ratings
1 star 2 stars 3 stars 4 stars 5 stars
comments

Transparent Sunshine Tab

Right after ages of looking for a tab i have tabbed the intro to the song. i am
still working on the rest, trying to figure out chords etc. The solo is nearly
done too, i just need to tab the last part so I will post it when its done.

The songs in Eb,Ab,Db,Gb,Bb,Eb tuning (half step down)

Heres the tab for the intro:

-------------------5----|----------3---------3---|
--------3------------3--|-------1----1-----1---1-|
------------------------|------------------------|
--4h5-5---5--4h5-5------|--2-3---------3-2-------|
------------------------|------------------------|
------------------------|------------------------|


-------3-----------3----|---8--7----------|
-----1---1-------1---1--|---------8-------|
------------------------|------------7----|
-0-1---------1-0--------|-----------------|
------------------------|-----------------|
------------------------|-----------------|

here is the solo so far:
[ Tab from: http://www.guitartabs.cc/tabs/s/sr_71/transparent_sunshine_tab.html ]
--------------------------------------------------------|
--------------------------------------------------------|
------------9--------9--------9--------9--------9-------|
--12^(14)---12^(14)--12^(14)--11^(13)--12^(14)--12^(14)-|
--------------------------------------------------------|
--------------------------------------------------------|



------------------|---------------------------|
------------------|---------------------------|
------------------|---------------------------|
---12b--10-----10-|--12----10-----------------|
------------12----|-----12----12----10--------|
------------------|--------------12----12-10-8|

-------------|-----------------------------------|-----------------|
-------------|-----------------------------------|-----------------|
-------------|----------------9-----9---9-------9|-------12-12-12--|
-------------|--10----10-12---10----10--10--12-10|-12s14-----------|
-------------|----12-------------12--------------|-----------------|
-8s5--8-10-12|-----------------------------------|-----------------|


--------------------------------------------------------------------|
-13-----13-----13----------13----------13-----------13--------------|
-12h14--12h14--12h14p12----12h14p12----12h14p12-----12--------------|
------------------------14----------14----------14-----14--14s16----|
--------------------------------------------------------------------|
--------------------------------------------------------------------|

I have nearly finished it so i will post the rest up when its done.

Thanks, Joel
Comments