Sr-71 - They All Fall Down Chords & Tabs

 

They All Fall Down Chords & Tabs

Sr-71 Chords & Tabs

Version: 1 Type: Tab 0 ratings
1 star 2 stars 3 stars 4 stars 5 stars
comments

They All Fall Down Tab

   
			     SR-71 - "They All Fall Down"               

Tabbed by: Tcurtis
Email: SuM41_RoX182@hotmail.com

Tuning:D-A-D-G-B-E
Intro and verse (not sure,might just be bar chords):
e|-------------------------------------------------------------|
B|-------------------------------------------------------------|
G|-------------------------------------------------------------|
D|-8-8--6-6-6--8-8--6--11-10-----------------------------------|
A|-X-X--X-X-X--X-X--X--X--X------------------------------------|
E|-8-8--6-6-6--8-8--6--11-10-----------------------------------|

Chorus("Cause they all fall down")listen to song for strumming:
e|-------------------------------------------------------------|
B|-------------------------------------------------------------|
G|-------------------------------------------------------------|
D|-444444444444333311111111111111111---------------------------|
A|-444444444444333311111111111111111---------------------------|
E|-444444444444333311111111111111111---------------------------|

Post Chorus("Jaded, dated, i'm the type you hated"):
e|-------------------------------------------------------------|
B|-------------------------------------------------------------|
G|-------------------------------------------------------------|
D|-88-44-66-66-------------------------------------------------|
A|-88-44-66-66-------------------------------------------------|
E|-88-44-66-66-------------------------------------------------|
[ Tab from: http://www.guitartabs.cc/tabs/s/sr_71/they_all_fall_down_tab.html ]
Ending
e|-------------------------------------------------------------|
B|-------------------------------------------------------------|
G|-------------------------------------------------------------|
D|-8-8--6-6-6---8--8---6---11----6--8--------------------------|
A|-X-X--X-X-X---8--8---6---11----6--8--------------------------|
E|-8-8--6-6-6---8--8---6---11----6--8--------------------------|


x  Mute note

i dont have the bridge but here are the lyrics
I can be as humble as the next guy
Or I can blink and make you crumble from the inside
I could be every nasty thing, you ever thought a man could be

Cuz they all fall down (down)
Cuz they all fall down (down)

I can make you see the beauty of a new sun
or I can be the source of your desperation
I could be every nasty think, you ever dreamt a man could be

[chorus]

Jaded, dated, i'm the type you hated
haunted, taunted, i'm what you've always wanted
yeah, yeah, i'm what you've always wanted [x2]

you can turn away like you don't even see me
Yea, you can smile like you got something I need
but every night you go home alone
and dream about being underneath me

[chorus]

Jaded, dated, i'm the type you hated
haunted, taunted, i'm what you've always wanted
yeah, yeah, i'm what you've always wanted [x2]

can't you see through this disguise 
Find the little boy inside
I'm afraid of falling
Love is pain and now she's calling
and she's, 
Jaded, dated, i'm the type you hated
haunted, taunted, i'm what you've always wanted
yeah, yeah, i'm what you've always wanted [x2]

[chorus]
Comments