Sr 71 - She Was Dead Chords & Tabs

 

She Was Dead Chords & Tabs

Sr 71 Chords & Tabs

Version: 1 Type: Tab 0 ratings
1 star 2 stars 3 stars 4 stars 5 stars
comments

She Was Dead Tab

   
Song: She Was Dead
Band: SR-71
Original Key: G#/Ab
Album: Tomorrow
tabbed by: Josiah – guitarvibe55@yahoo.com

This song is played in Drop D tuned down ½ step. 
So in other words: C# G# C# F# A# D#  or  Db Ab Db Gb Bb Eb

UNPLAYED STRINGS WILL NEVER BE SHOWN FOR THIS SONG
______
Intro: 
------
Bb--10-------10-------10-------7-------
Gb-------9--------9--------9-------9---
Db-----7---7----7---7----7---7---7---7-  (4X)

_____________________________________________________________
Verses: first strum of every chord is open but after that its 
palm-muted. The last part is open too.
-------------------------------------------------------------
    Ab5             Bb5             F5             
Gb--2-222222222222224-44444444444444-----------------7-6-4-7-6-4--
Db--2-222222222222224-444444444444444-44444444444444-7-6-4-7-6-4--
Ab--0-000000000000002-222222222222224-44444444444444-5-4-2-5-4-2--
Db----------------------------------4-44444444444444-------------- 
PLAY ALL THIS TWICE

_______________________________________________
Chorus: first half palm-muted, second half open
-----------------------------------------------
    Ab5     Eb5     F5      Db5     Ab5     Eb5     C5        Db5
Gb--2-2-2-2-------------------------2-2-2-2---------6-6-6-6-xx7-xx7-
Db--2-2-2-2-2-2-2-2-4-4-4-4-0-0-0-0-2-2-2-2-2-2-2-2-6-6-6-6-xx7-xx7-
Ab--0-0-0-0-2-2-2-2-4-4-4-4-0-0-0-0-0-0-0-0-2-2-2-2-4-4-4-4-xx5-xx5-
Db----------2-2-2-2-4-4-4-4-0-0-0-0---------2-2-2-2-----------------

SINCE I DONT KNOW THE STRUM PATTERN FOR THE SECOND HALF OF THE CHORUS 
I WILL WRITE THE POWER CHORDS OUT
[ Tab from: http://www.guitartabs.cc/tabs/s/sr_71/she_was_dead_tab.html ]
Ab5                 Eb5
Every day I’m gonna make her cry
F5                      Db5
‘til the minute that we say goodbye
E5                 Gb5    (silent)
I’m gonna make her wish........she was dead

Play Intro
Play Verse

____________________
Pre-Chorus: guitar 1
--------------------
         C5                       Db5*               Eb5*
There’s gotta be a way that i can get it through her head....

_______________________________________
Pre-Chorus: guitar 2 (starts on “head”)
---------------------------------------
Gb—-9-9-11-11-13-13-14-14-16-16-14-14-13-13-11-11-
Db—-x-x-x--x--x--x--x--x--x--x--x--x--x--x--x--x--
Ab—-7-7-9--9--11-11-12-12-14-14-12-12-11-11-9--9--

Play Chorus

_______
Bridge:
-------

Gb--------------------------------7-7-77777--4-6-4-4-44446-4-2-
Db--4-4-44444--2-0-7-7-77777--6-7-7-7-77777--4-6-4-4-44446-4-2-
Ab--4-4-44444--2-0-7-7-77777--6-7-5-5-55555--2-4-2-2-22224-2-0-
Db--4-4-44444--2-0-7-7-77777--6-7------------------------------

Gb--------------------------------7-7-7-7-7-7-7-7-9-9-9-9-9-9-9-9-9-9-9-9-9-9-9-9-
Db--4-4-44444--2-0-7-7-77777--6-7-7-7-7-7-7-7-7-7-9-9-9-9-9-9-9-9-9-9-9-9-9-9-9-9-
Ab--4-4-44444--2-0-7-7-77777--6-7-5-5-5-5-5-5-5-5-7-7-7-7-7-7-7-7-7-7-7-7-7-7-7-7-
Db--4-4-44444--2-0-7-7-77777--6-7-------------------------------------------------

Play Intro 4X
Play entire Chorus Open
Play first half of chorus open
Play second half palm-muted then open it on the last line

Chords:

Ab5    x022xxx
Eb5    222xxx
F5     444xxx
Db5    000xxx
E5     333xxx
Gb5    555xxx
C5     x466xx
Db5*   x577xx
Eb5*   x799xx

If you listen to the song you’ll know exactly what i’m talking about. 
That’s it. it took me a while to figure out but it’s not too hard 
once you get the hang of it. e-mail me at guitarvibe55@yahoo.com 
with questions and comments.
Comments