Sr 71 - Right Now Chords & Tabs

 

Right Now Chords & Tabs

Sr 71 Chords & Tabs

Version: 5 Type: Tab 0 ratings
1 star 2 stars 3 stars 4 stars 5 stars
comments

Right Now Tab

Name: Michael Schmidt

Tabs: Artist: SR-71
Song: "Right Now"
Album: "Now You See Inside"

Tablature by Michael D. Schmidt (daimon@erols.com)

Intro:
(Repeat 1x)

e|---------------------------- --------------------------|
B|---------------------------- --------------------------|
G|---------------------------- --------------------------|
D|8--------------------------- --------------------------|
A|6--6-6-6-6-6-6--/10--8--6--10---------------/6--8--10--|
E|---------------------------8 --8-8-8-8-8-8-------------|
     |---------|                 |---------|
         P.M.                        P.M.

e|---------------------------------------  ----------|
B|---------------------------------------  ----------|
G|---------------------------------------  ----------|
D|---------------------------------------  ----------|
A|8---------------/10--8--6--/11--10--8--8/10--8--6--|
E|6--6-6-6-6-6-6-------------------------  ----------|

     |---------|
         P.M.

Verse:
(Each of these chords is struck and followed by palm muting of the 
chord for the remainder of the measure)


e|----- -----------|
B|----- -----------|
G|----- -----------|
D|8---- -----------|
A|6---10---8---6---|
E|----8 ---6---4---|
[ Tab from: http://www.guitartabs.cc/tabs/s/sr_71/right_now_tab_ver_5.html ]
e|--------- ---------------|
B|--------- ---------------|
G|--------- ---------------|
D|7/8------ ---------------|
A|5/6---8/10---6/8---5/6---|
E|------6/8 ---4/6---3/4---|


Chorus:
(Repeat 2x)

e|--------------------------- --- --- -- -- ---------------|
B|--------------------------- --- --- -- -- ---------------|
G|--------------------------- --- --- -- -- ---------------|
D|8--8--8-8-8---------------- --- --- -- -- ---------------|
A|6--6--6-6-6--8--8--8-8-8--10--10--10-10-10--6--6--6-6-6--|
E|-------------6--6--6-6-6--8 --8 --8 -8 -8 --4--4--4-4-4--|


Outro Chorus:

e|----------------------------------------------------|
B|----------------------------------------------------|
G|----------------------------------------------------|
D|8--8--8-8-8-----------------------------------------|
A|6--6--6-6-6--8--8--8-8-8--3--3--3-3-3--3--3--3-3-3--|
E|-------------6--6--6-6-6--1--1--1-1-1--1--1--1-1-1--|

e|--------------------------|
B|--------------------------|
G|--------------------------|
D|--------------------------|
A|6--6--6-6-6--6--6--6-6-6--|
E|4--4--4-4-4--4--4--4-4-4--|


If you have any comments, send them to my e-mail address above.  And if 
you figure out the solo for this song, please send the tablature to me.

Comments