Sr 71 - Right Now Chords & Tabs

 

Right Now Chords & Tabs

Sr 71 Chords & Tabs

Version: 4 Type: Tab 1 rating
1 star 2 stars 3 stars 4 stars 5 stars
comments

Right Now Tab

   
Sr-71-Right Now
----------------------------------------------------------------------
----------------------------------------------------------------------
-8xxxxx---------------------------------------------------------------
-8xxxxx---------------------------------------------------------------
-6xxxxx--10-8-6--------6-8-10--------10-8-6-11-10-8-6-8-10------------
----------------8xxxxx--------6xxxxx----------------------------------

--------------------------------------------------------------------
--------------------------------------------------------------------
-8~~~--------------------------------------------------------------
-8~~~----------------------------------------------------------------
-6~~~--10-8-6------6-8-10--------10-8-6-11-10-8-6-8-10--------
----------------8~~~------6~~~------------------------------------

e-----------------------------------------------------------|
b-----------------------------------------------------------|
g--9---------------------6------------------4---------------|
d--9---------------------6------------------4---------------|
a--7--7-7-7-7-7-7-7-7-7--4-4-4-4-4-4-4-4-4-/2-2-2-2-2-2-2-2-|
e-----------------------------------------------------------|
  She clings to me like....

e------------------------------|
b------------------------------|
g----2----------------------8--|
d----2----------------------8--|
a-0--0--0-0-0-0-0-0-0-0-0---6--|
e------------------------------|

Verse Variation :

 	
e---------------------------------------------------------------|
b---------------------------------------------------------------|
g--9--------------------5--6-----------------3-/4---------------|
d--9--------------------5--6-----------------3-/4---------------|
a--7--7-7-7-7-7-7-7-7-7-3--4-4-4-4-4-4-4-4-4-1-/2-2-2-2-2-2-2-2-|
e---------------------------------------------------------------|

  
e------------------------------------|
b------------------------------------|
g----2----------------------8--------|
d----2----------------------8--------|
a-0--0--0-0-0-0-0-0-0-0-0---6--------|
e------------------------------------|

Chorus :

e-------------------------------------------------------------|
b-------------------------------------------------------------|
g--9--9--9--9---9---9-----------------------------------------|
d--9--9--9--9---9---9--9---9---9---9---9--9--11--11--11-11----|
a--7--7--7--7---7---7--9---9---9---9---9--9--11--11--11-11----|
e----------------------7---7---7---7---7--7---9----9---9--9----|
   Why Why you always....                    High 
e-------------------------------------------------------|
b-------------------------------------------------------|
g-------------------------------------------------------|
d--7--7---7----7---7--(9---9)---------------------------|
a--7--7---7----7---7------------------------------------|
e--5--5---5----5---5--(7---7)--------------------------|
[ Tab from: http://www.guitartabs.cc/tabs/s/sr_71/right_now_tab_ver_4.html ]
Nice Boy Part :
     Fsus4   Bsus4     A
e----0-------0---------5----5------------|
b----x-------x---------5----5------------|
g----2-------4---------6----6------------|
d----4-------4---------7----7------------|
a----4-------2---------7----7------------|
e----2-----------------5----5------------|
  I used to be such a nice boy.


Solo :

e-4p0-0--5p0-0--7p0--9p0--0--12b-r12--------------------|
b------------------------------------12/14--------------|
g------------------------------------------14\13--------|
d------------------------------------------------14/16--|
a-------------------------------------------------------|
e-------------------------------------------------------|

e-------------------------------------------------------|
b-------------------------------------------------------|
g---------------------------------------------9~~-------|
d-------------------------------------9h10h11-----------|
a-14/16--14/16-14~~-14~~-14---9h10h11------------9h11---|
e-------------------------------------------------------|

e---------------------------------12----------12----------|
b------------9~~-9h10p9--------10----------10-----14------|
g-------9h11-------------11b~~--------11b---------12b(14)-|
d--9h11---------------------------------------------------|
a---------------------------------------------------------|
e---------------------------------------------------------|

hold bends~~~~~~~~~~~~~~~~~~~~~~~~~~~~~~~~
e------12-----12------12------12-----12------12---------|
b---12-12--12-12--12--12---12-12--12-12---12-12--12-----|
g--(14)---(14)---(14)-----(14)---(14)----(14)---(14)----|
d-------------------------------------------------------|
a-------------------------------------------------------|
e-------------------------------------------------------|

e-12-12h14p12-12-12h16p14-12-12h14p12-12-12h16p14-------|
b-------------------------------------------------------|
g-------------------------------------------------------|
d-------------------------------------------------------|
a-------------------------------------------------------|
e-------------------------------------------------------|

e-12-12h16p12-16b~~~~-16-14---------------14b~-r14--16h17p14--|
b---------------------------17b~~~~~~~~~----------------------|
g-------------------------------------------------------------|
d-------------------------------------------------------------|
a-------------------------------------------------------------|
e-------------------------------------------------------------|

e--16h17p16---------------------------------------------|
b-------------------------------------------------------|
g------------16~~~~~~~~~~~-16/--------------------------|
d-------------------------------------------------------|
a-------------------------------------------------------|
e-------------------------------------------------------|

Outro : (with heavy flanger)
 
    C         D                  E             
e-------------^^^^"scoops"^^^-------------|
b---5~~~~~~~--7---7----7---7-----9~~~~~~--|
g---5~~~~~~~--7---7----7---7-----9~~~~~~--|
d--------------------------------9~~~~~~--|
a-----------------------------------------|
e-----------------------------------------|

E-mail me at sktbrdrarrestme@aol.com overall easy song to play, 
solo is a little difficult an fast but you can figure it out
Comments