Sr-71 - Lucky Chords & Tabs

 

Lucky Chords & Tabs

Sr-71 Chords & Tabs

Version: 2 Type: Tab 0 ratings
1 star 2 stars 3 stars 4 stars 5 stars
comments

Lucky Tab

   
------------------------------------------------------------------------------
			     sr-71 - lucky
-----------------------------------------------------------------------------
Tabbed by:jeffhead
Email:woolley_dave@hotmail.com

Tuning: standard

| /  slide up
| \  slide down
| h  hammer-on
| p  pull-off
|pm... palm mute
|n.h  natural harmonic

intro:
e|--------------------------------------------------------------------------|
B|--------------------------------------------------------------------------|
G|----3-3-3-3--------3-3-3-3------------------------------------------------|
D|----3-3-3-3---4----3-3-3-3---4--------------------------------------------|
A|----1-1-1-1---4----1-1-1-1---4--------------------------------------------|
E|--------------2--------------2--------------------------------------------|

prelude (guitar 1)
e|---------------------------------------------------------------------------|
B|-----------------------5/7-7-7---5/7-7--5/7-7------------------------------|
G|---8\6-6-6--8\6-6-6---------------------------------8\6-6-6--8\6-6-6-------|
D|---------------------------------------------------------------------------|
A|---------------------------------------------------------------------------|
E|---------------------------------------------------------------------------|

prelude (guitar 2)
e|-------------------------------------------------------------------------|
B|-------------------------------------------------------------------------|
G|----3-3-3-3--------------------------------------------------------------|
D|----3-3-3-3---4----------------------------------------------------------|
A|----1-1-1-1---4----------------------------------------------------------|
E|--------------2----------------------------------------------------------|

verse:(X 2)
e|-------------------------------------------------------------------------|
B|-------------------------------------------------------------------------|
G|---6---------6--------------6--------------------------------------------|
D|---6---------6--------------6-(x4)--6------------------------------------|
A|---4---------4--------------4-------6-(x4)-------------------------------|
E|------------------------------------4------------------------------------|

chourus
      n.h  n.h                                    PM............
e|---------------------------------------------------------------------------|
B|---------------------------------------------------------------------------|
G|---6-4---4----------------6------------------------------------------------|
D|---6-4-6-4-8------4-------6-(x4)-6------8-------4--4-4-4-4-4-4-------------|
A|---4---6---8-(x4)-4-(x4)--4------6-(x4)-8-(x4)--4--4-4-4-4-4-4-------------|
E|-------4---6------2--------------4------6-------2--2-2-2-2-2-2-------------|

e|-------------------------------------------------------------------------|
B|-------------------------------------------------------------------------|
G|---6----------------------------6----------------------------------------|
D|---6-(X4)--6------8------4------6-(X4)-6-------44--44--------------------|
A|---4-------6-(X4)-8-(X4)-4-(X4)-6------6-(X4)--44--44--------------------|
E|-----------4------6------2-------------4-------22--22--------------------|

PRELUDE(X 1)
VERSE(X 2)
CHOURUS(X 1)

SOLO:
e|-------------------------------------------------------------------------|
B|---7h8p7---------7h8p7-----------7h8p7----------7h8p7--------------------|
G|----------7h9p7----------7h9p7-----------7h9p7--------7h9p7--------------|
D|-------------------------------------------------------------------------|
A|-------------------------------------------------------------------------|
E|-------------------------------------------------------------------------|

e|-------------------------------------------------------------------------|
B|----8h9p8----------8h9p8---------8h9p8---------8h9p8---------------------|
G|-----------8h10p8--------8h10p8---------8h10p8--------8h10p8-------------|
D|-------------------------------------------------------------------------|
A|-------------------------------------------------------------------------|
E|-------------------------------------------------------------------------|

e|-------------------------------------------------------------------------|
B|----11h12p11--------11h12p11--------11h12p11--------11h12p11-------------|
G|------------11h13p11--------11h13p11--------11h13p11--------11h13p11-----|
D|-------------------------------------------------------------------------|
A|-------------------------------------------------------------------------|
E|-------------------------------------------------------------------------|
[ Tab from: http://www.guitartabs.cc/tabs/s/sr_71/lucky_tab_ver_2.html ]
e|-------------------------------------------------------------------------|
B|----13h14p13--------13h14p13--------13h14p13--------13h14p13-------------|
G|------------13h15p13--------13h15p13--------13h15p13--------13h15p13-----|
D|-------------------------------------------------------------------------|
A|-------------------------------------------------------------------------|
E|-------------------------------------------------------------------------|

e|-/22--17----22--17-----22--17----22--17-----22--17--17---22-17---22--------|
B|---------19--------19---------19--------19--------19--19------19----17(19--|
G|---------------------------------------------------------------------------|
D|---------------------------------------------------------------------------|
A|---------------------------------------------------------------------------|
E|---------------------------------------------------------------------------|
          n.h
e|--------------------------------------------------------------------------|
B|--------------------------------------------------------------------------|
G|---------10----------------------------------10--8-10h11p10h11p10-8\6-8p6-|
D|--13(15)-------13-11------------11-13-13(15)------------------------------|
A|----------------------13--11--13------------------------------------------|
E|--------------------------------------------------------------------------|


e|--------------11-11(13)-11(13)-11p9--------------------------------------|
B|------------------------------------11-14-11\9----9\7----7---------------|
G|-----------------------------------------------11-----10---10-6-8h10p8---|
D|-8p6h8p6-----------------------------------------------------------------|
A|---------8---------------------------------------------------------------|
E|-------------------------------------------------------------------------|

e|-------------------------------------------------------------------------|
B|-------------------------------------------------------------------------|
G|-9(11)-9(11)-9(11)------11(13)-11(13)-11(13)-------13(15)-13(15)-13(15)--|
D|-------------------------------------------------------------------------|
A|-------------------------------------------------------------------------|
E|-------------------------------------------------------------------------|

e|-------------------------------------------------------------------------|
B|-------------------------------------------------------------------------|
G|-18(20)-18(20)-18(20)-18(20)---------------------------------------------|
D|-------------------------------------------------------------------------|
A|-------------------------------------------------------------------------|
E|-------------------------------------------------------------------------|

guitar 2 plays this under solo
e|---------------------------------------------------------------|
B|---------------------------------------------------------------|
G|---6-6-6----8-8-8----11-11-11----13-13-13----------------------|
D|---6-6-6----8-8-8----11-11-11----13-13-13----------------------|
A|---4-4-4----6-6-6-----9--9--9----11-11-11----------------------|
E|---------------------------------------------------------------|

e|---------------------------------------------------------------|
B|---------------------------------------------------------------|
G|---6666-8888-11111111-13131313-6666-8888-11111111-xx13xx13-----|
D|---6666-8888-11111111-13131313-6666-8888-11111111-xx13xx13-----|
A|---4444-6666--9-9-9-9-11111111-4444-6666--9-9-9-9-xx11xx11-----|
E|--------------------------------------------------xx--xx-------|

e|---------------------------------------------------------------|
B|---------------------------------------------------------------|
G|---6666-8888-11111111-13131313--111111--131313--111111---------|
D|---6666-8888-11111111-13131313--111111--131313--111111---------|
A|---4444-6666--9-9-9-9-11111111---9-9-9--111111---9-9-9---------|
E|---------------------------------------------------------------|

e|----------------xxxxxx---|
B|----------------xxxxxx---|
G|---1313131313---xxxxxx---|
D|---1313131313---xxxxxx---|
A|---1111111111---xxxxxx---|
E|----------------xxxxxx---|

pre chourus:

pm...................                .................
e|-------------------------------------------------------------------------|
B|-------------------------------------------------------------------------|
G|-------------6--------6--------------------------------------------------|
D|-3-----4-----6(x8)----6-6-8-4-6-4--3-----4-----6-------------------------|
A|-3(x8)-4(x8)-4--------4-6-6-4-6-4--3(x8)-4(x8)-6(x8)---------------------|
E|-1-----2----------------4-6-2-4-2--1-----2-----4-------------------------|

 played clean(x4)
e|-------------------------------------------------------------------------|
B|-------------------------------------------------------------------------|
G|-6-8-----11--------------------------------------------------------------|
D|-6-8--8--11--------------------------------------------------------------|
A|-4-6--8---9--------------------------------------------------------------|
E|------6------------------------------------------------------------------|

chourus(x 1)
prelude(x 1)

END
Comments