Sr-71 - Lucky Chords & Tabs

 

Lucky Chords & Tabs

Sr-71 Chords & Tabs

Version: 1 Type: Tab 0 ratings
1 star 2 stars 3 stars 4 stars 5 stars
comments

Lucky Tab

Tabbed by: Mike
Band: Sr-71
Song Title: Lucky

\ (slide down)
/ (slide up)
x (muted note)


Intro:

e----------------------------------------------------------------|
B----------------------------------------------------------------|
G---55555--55---------55555--55----------------------------------|
D---55555--556--------55555--556---------------------------------|
A---33333--336--------33333--336---------------------------------|
E------------4-----------------4---------------------------------|

Prelude: (guitar 1-lead)

e------------------------------------------------------------------------|
B------------------------------------------------------------------------|
G-------------------------------------------------------------55555--55--|
D--6\4-4-4--6\4-4-4---7/8-8-8--7/8--7/8---6\4-4-4--6\4-4-4----55555--556-|
A-------------------------------------------------------------33333--336-|
E----------------------------------------------------------------------4-|

Prelude: (guitar 2-rhythm)

e----------------------------------------------------------------|
B----------------------------------------------------------------|
G-8-(8x)-10-(8x)-8-(8x)--55555--55-------------------------------|
D-8------10------8-------55555--556------------------------------|
A-6-------8------6-------33333--336------------------------------|
E---------------------------------4------------------------------|


Verse:(2x)

       "I drowned...    
e----------------------------------------------------------------|
B----------------------------------------------------------------|
G----8----------------8------------------------------------------|
D--668--------------668---------------8-(8x)--6------------------|
A--666--------------666---------------8-------6------------------|
E--44---------------44----------------6-------4------------------|


1st chorus:


e-----------------------------------------------------xxxxxx-----
B-----------------------------------------------------xxxxxx-----
G--8-------5-(4x)--------8-(4x)--------5-(4x)---------xxxxxx-----
D--8---8---5------6-(4x)-8------8-(4x)-5------6-(4x)--xxxxxx-----
A--6---8---3------6------6------8------3------6-------xxxxxx-----
E------6----------4-------------6-------------4-------xxxxxx-----

 ----------------------------------------------------------------|
 ----------------------------------------------------------------|
 -8-(4x)--------5-(4x)--------8-(4x)-----------------------------|
 -8------8-(4x)-5------6-(4x)-8------8-(4x)--666--66--6666666----|
 -6------8------3------6------6------8-------666--66--6666666----|
 --------6-------------4-------------6-------444--44--4444444----|


after the chorus play the prelude again and the verse ONCE!!


2nd chorus:


e-----------------------------------------------------xxxxxx-----
B-----------------------------------------------------xxxxxx-----
G--8-------5-(4x)--------8-(4x)--------5-(4x)---------xxxxxx-----
D--8---8---5------6-(4x)-8------8-(4x)-5------6-(4x)--xxxxxx-----
A--6---8---3------6------6------8------3------6-------xxxxxx-----
E------6----------4-------------6-------------4-------xxxxxx-----

 --------------------------------------------------------------------------|
 --------------------------------------------------------------------------|
 -8-(4x)--------5-(4x)--------8-(4x)---------------------------------------|
 -8------8-(4x)-5------6-(4x)-8------8-(4x)--666--66--666--66----6666666---|
 -6------8------3------6------6------8-------666--66--666--66----6666666---|
 --------6-------------4-------------6-------444--44--444--44----4444444---|


I haven't figured out the solo unfortunately, but here's 
the rhythm guitar behind it.


e-----------------------------------------------------------------
B-----------------------------------------------------------------
G---6-6-6----8-8-8----11-11-11----13-13-13------------------------
D---6-6-6----8-8-8----11-11-11----13-13-13------------------------
A---4-4-4----6-6-6-----9--9--9----11-11-11------------------------
E-----------------------------------------------------------------

 -----------------------------------------------------------------
 -----------------------------------------------------------------
 ---6666-8888-11111111-13131313-6666-8888-11111111-xx13xx13-------
 ---6666-8888-11111111-13131313-6666-8888-11111111-xx13xx13-------
 ---4444-6666--9-9-9-9-11111111-4444-6666--9-9-9-9-xx11xx11-------
 --------------------------------------------------xx--xx---------
 
 -----------------------------------------------------------------
 -----------------------------------------------------------------
 ---6666-8888-11111111-13131313--111111--131313--111111-----------
 ---6666-8888-11111111-13131313--111111--131313--111111-----------
 ---4444-6666--9-9-9-9-11111111---9-9-9--111111---9-9-9-----------
 -----------------------------------------------------------------

 ----------------xxxxxx---|
 ----------------xxxxxx---|
 ---1313131313---xxxxxx---|
 ---1313131313---xxxxxx---|
 ---1111111111---xxxxxx---|
 ----------------xxxxxx---|


 Bridge:
[ Tab from: http://www.guitartabs.cc/tabs/s/sr_71/lucky_tab.html ]
    "I know we dont think alike..."
e------------------------------------------------------------------
B------------------------------------------------------------------
G-------------------1111111111111111-------------------------------
D---88888888999999991111111111111111-------------8888888899999999--
A---8888888899999999-9-9-9-9-9-9-9-9-9-8-6-8-6-4-8888888899999999--
E---6666666677777777-----------------------------6666666677777777--
  pm................................             ................


 ----------------------------|
 ----------------------------|
 ----------------------------|
 ---6666666666666666---------|
 ---6666666666666666---------|
 ---4444444444444444---------|
    ...........      

 
3rd chorus: (play clean - guitar 1)

   "I know its not..."
e----------------------------
B----------------------------(play 3x)
G--8-------5-----------------
D--8---8---5---6-------------
A--6---8---3---6-------------
E------6-------4-------------

on the third time the above progression is played, the other guitar comes in 
with distortion and plays:

e-----------------------------------------------------------------
B-----------------------------------------------------------------
G---8888------5555------8888--------------------------------------
D---8888-8888-5555-6666-8888-8888---------------------------------
A---6666-6666-3333-6666-6666-8888---------------------------------
E--------8888------4444------6666--13\1---------------------------
 pm .............................



final chorus: (both guitars - distortion)

   "I know its not..."

e------------------------------------------------------------xxxxxx-----
B------------------------------------------------------------xxxxxx-----
G--8-(4x)---------5-(4x)--------8-(4x)--------5-(4x)---------xxxxxx-----
D--8------8-(4x)--5------6-(4x)-8------8-(4x)-5------6-(4x)--xxxxxx-----
A--6------8-------3------6------6------8------3------6-------xxxxxx-----
E---------6--------------4-------------6-------------4-------xxxxxx-----


e---------------------------------------------------------------------
B---------------------------------------------------------------------
G--8-(4x)----------5-(4x)--------8-(4x)-------------------------------
D--8-------8-(4x)--5------6-(4x)-8------8-(4x)--666-66--666-66--666-66
A--6-------8-------3------6------6------8-------666-66--666-66--666-66
E----------6--------------4-------------6-------444-44--444-44--444-44


 ------------------------------
 ------------------------------
 ------------------------------
 --66666-666666----------------
 --66666-666666----------------
 --44444-444444----------------


 outro: (lead guitar)


e------------------------------------------------------------   
B------------------------------------------------------------  
G------------------------------------------------------------  
D--6\4-4-4--6\4-4-4---7/8-8-8--7/8--7/8---6\4-4-4--6\4-4-4---   
A------------------------------------------------------------   
E------------------------------------------------------------   

----------------------------------------------------|
----------------------------------------------------|
---55555--55---------55555--55---------55555--55----|
---55555--556--------55555--556--------55555--556---|
---33333--336--------33333--336--------33333--336---|
------------4-----------------4-----------------4---|


 outro: (rhythm guitar)


e------------------------
B------------------------
G-8-(8x)-10-(8x)-8-(8x)--
D-8------10------8-------
A-6-------8------6-------
E------------------------


------------------------------------------------|
------------------------------------------------|
55555--55---------55555--55---------55555--55---|
55555--556--------55555--556--------55555--556--|
33333--336--------33333--336--------33333--336--|
---------4-----------------4-----------------4--|



Lyrics:

Verse 1

I drowned my girlfriend in her wishing well
I'm not afraid of after life hell.

'Cause I live it every day 
 I liveit every day.

Verse 2

I lit a fire on my neighbours lawn
I didn't know them to me they were my pawns.

Cause I live it every day
I live it every day.

Chorus 1:

I know its not considered right the way I live my days and nights
I always thought I'd rather be considered lucky than good.
I know its not considered right and every day's another fight
I always thought I'd rather be considered lucky than good.

Verse 3

I buy my porn off the internet
I get so much f***ing junk mail my only regret.

Cause I live it every day 
I live it every day 

Chorus 2:

I know its not considered right the way I live my days and nights
I always thought I'd rather be considered lucky than good.
I know its not considered right and every day's another fight
I always thought I'd rather be considered lucky, considered lucky, 
than good.


Bridge:

I know we don't think alike
your always wrong I'm always right.
Acting not so secretley 
you wanna be just like me.

Chorus 3:

I know its not considered right the way I live my days and nights
I always thought I'd rather be considered lucky than good.
I know its not considered right and every day's another fight
I always thought I'd rather be considered Lucky...

Chorus 4: 

I know its not considered right the way I live my days and nights
I always thought I'd rather be considered lucky than good.
I know its not considered right and every day's another fight
I always thought I'd rather be considered lucky, considered lucky, 
I'd rather be lucky, than good.


Thats the whole song except for the solo, speaking of which,
I anyone can figure it out please post it. Thanks and I'll try to get 
more Sr-71 tabs out soon.

This song kiks ass so have fun!!!
Comments