Sr 71 - Let It Whip Chords & Tabs

 

Let It Whip Chords & Tabs

Sr 71 Chords & Tabs

Version: 4 Type: Tab 0 ratings
1 star 2 stars 3 stars 4 stars 5 stars
comments

Let It Whip Tab

Intro: (with wah)
e---------------------------------------------|
b---------------------------------------------|
f---5----5--------5---7------5----7--5--------|
c-7----7--------7---7------7----7-------------| Guitar 1
g---------------------------------------------|
c---------------------------------------------|


e---------------------------------------------|
b---------------------------------------------|
f---------------------------------------------|
c--6---8--------8--3--------------------------|  Guitar 2
g--6---8--------8--3--------------------------|
c--6---8--------8--3--------------------------|

Verse:

[ Tab from: http://www.guitartabs.cc/tabs/s/sr_71/let_it_whip_tab_ver_4.html ]
e---------------------------------------------|
b---------------------------------------------|
f---------------------------------------------|
c--6---8--------8--3--------------------------|  Guitar 2
g--6---8--------8--3--------------------------|
c--6---8--------8--3--------------------------|


Chorus:

e---------------------------------------------|
b---------------------------------------------|
f---------------------------------------------|
c--6---8-xxxxxxx-------8--3-xxxxxxxxxx--------|  Both Guitars
g--6---8-xxxxxxx-------8--3-xxxxxxxxxx--------|
c--6---8-xxxxxxx-------8--3-xxxxxxxxxx--------|

Breakdown:

e---------------------------------------------|
b---------------------------------------------|
f---------------------------------------------|
c--1-1--6-6--3-3--8-8-8-8-8-8-8-8-8-----------|  Guitar 1
g--1-1--6-6--3-3--8-8-8-8-8-8-8-8-8-----------|
c--1-1--6-6--3-3--8-8-8-8-8-8-8-8-8-----------|

Repeat chorus:
Break down:
Repeat chorus rest of song:Then Guitar 2 starts playin the Intro w/o wah:

  100% right ...Big Gino's tab email me at Rammstein2005@aol.com and tell me what u think.
Comments