Sr-71 - In Your Eyes Chords & Tabs

 

In Your Eyes Chords & Tabs

Sr-71 Chords & Tabs

Version: 2 Type: Tab 0 ratings
1 star 2 stars 3 stars 4 stars 5 stars
comments

In Your Eyes Tab

   
Tabbed By: Mike

Here's the CORRECT tab for In Your Eyes
I said i'd get to you - I just didnt
think i'd finish it so fast.

/ = slide up
pm... = palm mute
x = muted note
h = hammer on
~ = let ring


 Intro:

eb---------------------------------|
Bb-------3----3---3---3---3-----3--| (x2)
Gb------------------0----0---------|
Db---------------0------------2----|
Ab--1/2-----2----------------------|
Eb---------------------------------|

 Verse:		PART 1
	rhythm
eb--------------------------------------|
Bb--------------------------------------|
Gb-99--------------7777------------9999-|
Db-99--99999999999977775555555555559999-|
Ab-77--99999999999955555555555555557777-|
Eb-----777777777777----333333333333-----|
     pm................................
eb----------------------------------|
Bb----------------------------------|
Gb-------------7777------------9999-|
Db-99999999999977775555555555559999-
Ab-99999999999955555555555555557777-
Eb-777777777777----333333333333-----
 pm................................
eb----------------------------------|
Bb----------------------------------|
Gb-------------7777------------9999-|
Db-99999999999977775555555555559999-
Ab-99999999999955555555555555557777-
Eb-777777777777----333333333333-----
 pm................................
eb----------------------------------|
Bb----------------------------------|
Gb-------------7777-------------99--|
Db-9999999999997777555555555555-99--|
Ab-9999999999995555555555555555-77--|
Eb-777777777777----333333333333-----|
 pm............................

	lead - play through verse
eb-------------------------------|
Bb-----3----3---3---3---3-----3--|
Gb----------------0----0---------|
Db-------------0------------2----|
Ab--2-----2----------------------|
Eb-------------------------------|

		PART 2

eb----------------------------------|
Bb----------------------------------|
Gb---------------77--------------99-|
Db--9-9999999999-77-5-5555555555-99-|
Ab--9-9999999999-55-5-5555555555-77-|
Eb--7-7777777777----3-3333333333----|
 pm   ..........    . ..........
eb----------------------------------|
Bb----------------------------------|
Gb---------------77--------------99-|
Db--9-9999999999-77-5-5555555555-99-|
Ab--9-9999999999-55-5-5555555555-77-|
Eb--7-7777777777----3-3333333333----|
 pm   ..........      ..........
eb----------------------------------|
Bb----------------------------------|
Gb---------------77--------------99-|
Db--9-9999999999-77-5-5555555555-99-|
Ab--9-9999999999-55-5-5555555555-77-|
Eb--7-7777777777----3-3333333333----|
 pm   ..........      ..........
eb-----------------------------------|
Bb-----------------------------------|
Gb---------------77------------------|
Db--9-9999999999-77-5-55555555555555-|
Ab--9-9999999999-55-5-55555555555555-|
Eb--7-7777777777----3-33333333333333-|
 pm   ..........      ..............

 Pre-Chorus	PART 1

eb------------------------------------------------|
Bb------------------------------------------------|
Gb------------------------------------------------|
Db--77777------xx55555----xxxx77777------xx55555--|
Ab--77777------xx55555----xxxx77777------xx55555--|
Eb--55555------xx33333----xxxx55555------xx33333--|

		PART 2
	rhythm
eb-----------------------------------|
Bb-----------------------------------|
Gb-----------------------------------|
Db--77777777777777775555555555555555-|
Ab--77777777777777775555555555555555-|
Eb--55555555555555553333333333333333-|
  pm................................
[ Tab from: http://www.guitartabs.cc/tabs/s/sr_71/in_your_eyes_tab_ver_2.html ]
eb-----------------------------------------------|
Bb-----------------------------------------------|
Gb-----------------------------------------------|
Db--7777777777777777-555-----555-----555-----555-|
Ab--7777777777777777-555-----555-----555-----555-|
Eb--5555555555555555-333-----333-----333-----333-|
  pm................

	lead
eb-----------------------------------------------|
Bb-----------------------------------------------|
Gb-----------------------------------------------|
Db-----------------------------------------------|
Ab-----5-4---4-4h5-----5-4---4-4h5-----5-4---4h5-|
Eb--5---------------3---------------5------------|

eb-----------------------------------------------------|
Bb-----------------------------------------------------|
Gb--12--------------12--------------12--------------12-|
Db--12--------------12--------------12--------------12-|
Ab--10--------------10--------------10--------------10-|
Eb-----------------------------------------------------|


 Chorus
	rhythm
eb-----------------------------------|
Bb-----------------------------------| (x6)
Gb--9999999999999999--------77776666-|
Db--99999999999999997777777777777777-|
Ab--77777777777777777777777755554444-|
Eb------------------55555555---------|

	lead
eb-----------------------------------|
Bb-----------------------------------| (x6)
Gb--9999999999999999--------77777777-|
Db--xxxxxxxxxxxxxxxx77777777xxxxxxxx-|
Ab--7777777777777777xxxxxxxx55555555-|
Eb------------------55555555---------|

 End Chorus on:

eb-----
Bb-----
Gb-----
Db--2--
Ab--2--
Eb--0--

PLAY VERSE AND PRE-CHORUS AGAIN

*For the second verse here its exactly the same
  as the first verse except for PART 1 the rhythm
  guitar doesn't play its only the bass and lead
  until PART 2 of the Verse*

  *for the pre-chorus strum the very last
   chord one more time here)


Final Chorus
		rhythm
eb-----------------------------------|
Bb-----------------------------------| (x12)
Gb--9999999999999999--------77776666-|
Db--99999999999999997777777777777777-|
Ab--77777777777777777777777755554444-|
Eb------------------55555555---------|

		lead
eb-----------------------------------|
Bb-----------------------------------| (x8)
Gb--9999999999999999--------77777777-|
Db--xxxxxxxxxxxxxxxx77777777xxxxxxxx-|
Ab--7777777777777777xxxxxxxx55555555-|
Eb------------------55555555---------|

 then

eb--1212--1212--1212--1212--121212121212--1212--1212--1212--12121212-|
Bb--1212--1212--1212--1212--121212121010--1010--1212--1212--12121212-| (x4)
Gb-------------------------------------------------------------------|
Db-------------------------------------------------------------------|
Ab-------------------------------------------------------------------|
Eb-------------------------------------------------------------------|


Outro:
	rhythm
eb--------------------------------------|
Bb--------------------------------------|
Gb--66666666666666667777777777777777----|
Db--77777777777777777777777777777777-2~-|
Ab--44444444444444445555555555555555-2~-|
Eb-----------------------------------0~-|

	lead
eb--00000000-0-0-0-00000-0-0-0-00000-0-0-0-0-0-0-0-0--0--|
Bb--999977771010101099991010101099991010101012121212-12~-|
Gb-------------------------------------------------------|
Db-------------------------------------------------------|
Ab-------------------------------------------------------|
Eb-------------------------------------------------------|

OK. There it is. The right way to play In Your Eyes
 by SR-71 (or Mitch Allan - whatever, its the same band)
 It's a really easy song to play but just as great as
 all the other SR-71 songs.
 I'll try to post it for both SR-71 and Mitch Allan if
 the site lets me, so if ur gonna look for this tab under
 Mitch Allan if anything it'll probbably be this exact same
 tab - until someone decides to post another one. But if they
 do it probably won't get much better than this.
Comments