Sr-71 - Here We Go Again Chords & Tabs

 

Here We Go Again Chords & Tabs

Sr-71 Chords & Tabs

Version: 2 Type: Tab 0 ratings
1 star 2 stars 3 stars 4 stars 5 stars
comments

Here We Go Again Tab

Tabbed By: Mike

~ = let ring
/ = slide up
\ = slide down
^ = bend
r = release bend
v = vibrato
h = hammer on
p = pull off
pm = palm mute


*Half Step Down   ***LEAD IS PLAYED CAPO 1***
		    NOTE: for the lead ONLY the fret
                          #'s are relevent to the capo!!!
                          *so "0" would mean play the
                          string open  when in reality
                          the capo is holding it down on
                          fret 1.*

   Intro: lead (x2)

eb---------------------------------------------------|
Bb---------------------------------------------------|
Gb---------------------------------------------------|
Db---------------------------------------------------|
Ab----2-3---2-3-3-5-3-7-5-3----2-3---2-3-7-5-3-7-5-3-|
Eb--5-----0------------------5-----0-----------------|

   rhythm (starts on 2nd time above is played)
	*strum each as needed
eb--------------------|
Bb--------------------|  (x2)
Gb------------5-------|
Db--7----3----5----5--|
Ab--7----3----3----5--|
Eb--5----1---------3--|


Verse: rhythm

eb-----------------------------------|
Bb-----------------------------------|
Gb-----------------------------------|
Db--77777777777777773333333333333333-|
Ab--77777777777777773333333333333333-|
Eb--55555555555555551111111111111111-|
pm   ............... ...............

eb-----------------------------------|
Bb-----------------------------------|
Gb--5555555555555555-----------------|
Db--55555555555555555555555655555555-|
Ab--33333333333333335555555555555555-|
Eb------------------3333333333333333-|
pm   ............... ...... ........

eb-----------------------------------|
Bb-----------------------------------|
Gb-----------------------------------|
Db--77777777777777773333333333333333-|
Ab--77777777777777773333333333333333-|
Eb--55555555555555551111111111111111-|
pm   ............... ...............

eb-----------------------------------|
Bb-----------------------------------|
Gb--55555555555555557--77------------|
Db--55555555555555557--77------------|
Ab--33333333333333335--55------------|
Eb-----------------------------------|
pm   ...............

lead starts during second half of above(0:25)

eb---------------------------|
Bb-----0--------0-3--55------|
Gb-1-3---3--1----------------|
Db---------------------------|
Ab---------------------------|
Eb---------------------------|

Chorus: rhythm

eb----------------------------------|
Bb----------------------------------|
Gb--55--------------55--------------|
Db--55---3333333333-55---3333333333-|
Ab--33---3333333333-33---3333333333-|
Eb-------1111111111------1111111111-|

eb---------------------------------------|
Bb---------------------------------------|
Gb--55555--------------------------------|
Db--5555555555333333333377777777775555555|
Ab--3333355555333333333377777777775555555|
Eb-------33333111111111155555555553333333|

play the intro again

Verse 2: rhythm

eb-----------------------------------|
Bb-----------------------------------|
Gb-----------------------------------|
Db--77777777777777773333333333333333-|
Ab--77777777777777773333333333333333-|
Eb--55555555555555551111111111111111-|
pm   ............... ...............

eb-----------------------------------|
Bb-----------------------------------|
Gb--5555555555555555-----------------|
Db--55555555555555555555555655555555-|
Ab--33333333333333335555555555555555-|
Eb------------------3333333333333333-|
pm   ............... ...... ........

eb-----------------------------------|
Bb-----------------------------------|
Gb-----------------------------------|
Db--77777777777777773333333333333333-|
Ab--77777777777777773333333333333333-|
Eb--55555555555555551111111111111111-|
pm   ............... ...............

eb-----------------------------------|
Bb-----------------------------------|
Gb--55555555555555557--77--10--12----|
Db--55555555555555557--77--10--12----|
Ab--33333333333333335--55---8--10----|
Eb-----------------------------------|
pm   ...............

lead starts during second half of above(1:07)

eb---------------------------|
Bb-----0--------0-3--55~-6-8-|
Gb-1-3---3--1----------------|
Db---------------------------|
Ab---------------------------|
Eb---------------------------|

Play chorus again

Solo: *this is why you need the capo*

-----------------------------------------------------------------|
--4p0-0--2p0-0--4p0--5p0-0--4p0-0--5p0--7p0-0--5p0-0--7p0--7/9-7-|
-----------------------------------------------------------------|
-----------------------------------------------------------------|
-----------------------------------------------------------------|
-----------------------------------------------------------------|

----------------------------------------------------------------|
----------------------------------------------------------------|
---------------------------9v-9v------16v--16v------------------|
-4/6--4---------------------------------------------------------|
---------4 4^6r4---2-/--7---------/14---------------------------|
----------------------------------------------------------------|

[ Tab from: http://www.guitartabs.cc/tabs/s/sr_71/here_we_go_again_tab_ver_2.html ]
-19p16-----19p16-----19p16---19p16----19p16----19p16--19^21r19--|
-------16--------16----------------16-------16------------------|
----------------------------------------------------------------|
----------------------------------------------------------------|
----------------------------------------------------------------|
----------------------------------------------------------------|


----------------------------------------------------------------|
-16--16h17p16--17^19r17-----------------------------------------|
-------------------------16v------16--16h18p16-18^20r18-16------|
------------------------------/18-------------------------------|
----------------------------------------------------------------|
----------------------------------------------------------------|

----------------------------------------------------------------|
----------------------------------------------------------------|
--15--15^16-----------------------------------------------------|
-----------------/16--16--16/18v--------------------------------|
----------------------------------------------------------------|
----------------------------------------------------------------|

rhythm behind solo:

eb-----------------------------------------|
Bb-----------------------------------------|
Gb--55555---------------55555--------------|
Db--5555555555333333333355555555553-33-333-|
Ab--3333355555333333333333333555553-33-333-|
Eb-------333331111111111-----333331-11-111-|
pm  ..............................

eb--------------------------------------------|
Bb--------------------------------------------|
Gb--55555-------------------------------------|
Db--5555555555333333333377777777775555555557~-|
Ab--3333355555333333333377777777775555555557~-|
Eb-------33333111111111155555555553333333335~-|


Bridge: its really done with an acoustic guitar
        but you can jus turn off the distortion
        instead.

	rhythm guitar
eb----------0---------------0--------|
Bb----------------1---------------1--|
Gb------2-----2---------0-----0------|
Db----2---2-----2-----2---2-----2----|
Ab--0---------------3----------------|
Eb-----------------------------------|

eb----------0---------------3-----3--|
Bb------1-----1---------3-----3---3--|
Gb----2---2---------------0----------|
Db--3-------------0---0---------0----|
Ab--------------3--------------------|
Eb------------------3----------------|

eb----------0---------------0--------|
Bb----------------1---------------1--|
Gb------2-----2---------0-----0------|
Db----2---2-----2-----2---2-----2----|
Ab--0---------------3----------------|
Eb-----------------------------------|

                    | turn distortion back up
eb----------0-------|-----------------|
Bb------1-----1---1-|-----------------|
Gb----2---2-----2---|-7---77----------|
Db--3---------------|-7---77----------|
Ab------------------|-5---55----------|
Eb------------------|-----------------|


then lead plays:

eb---------------------------------------------------|
Bb---------------------------------------------------|
Gb---------------------------------------------------|
Db---------------------------------------------------|
Ab----2-3---2-3-3-5-3-7-5-3----2-3---2-3-3-5-3-7-5-3-|
Eb--5-----0------------------5-----0-----------------|

eb--------------------|------------------------|
Bb--------------------|------------------------|
Gb--------------------|---7----9----10----12---|
Db--------------------|---x----x-----x-----x---|
Ab----2-3---2-3-3-5-3-|---5----7-----8----10---|
Eb--5-----0-----------|------------------------|
                      |
                      |rhythm comes in here with:
		      |eb---------------------------|
		      |Bb---------------------------|
		      |Gb-7----7-----7-----7--------|
		      |Db-7----7-----7-----7--------|
		      |Ab-5----5-----5-----5--------|
		      |Eb---------------------------|

Final Chorus: (x2)

eb-------------------------------------------|
Bb-------------------------------------------|
Gb--55555---------------55555----------------|
Db--5555555555333333333355555555553333333333-|
Ab--3333355555333333333333555555553333333333-|
Eb-------333331111111111-----333331111111111-|

eb---------------------------------------|
Bb---------------------------------------|
Gb--55555--------------------------------|
Db--5555555555333333333377777777775555555|
Ab--3333355555333333333377777777775555555|
Eb-------33333111111111155555555553333333|

There is no distinctlead behind this
  But I like to play this:

eb--------------------------------------------|
Bb--------------------------------------------|
Gb--5--------------------5--------------------|
Db------5---3---5/7-5-3------5---3---5/7-5-3--|
Ab--------------------------------------------|
Eb--------------------------------------------|

eb-------------------------------------|
Bb-------------------------------------|
Gb--5----------------------------------|
Db------5---3--------------------------|
Ab------------7/8-7-5-3-5---7---8---10-|
Eb-------------------------------------|

Both guitars end on:

eb------|
Bb------|
Gb--5~--|
Db--5~--|
Ab--3~--|
Eb------|


There you have it, a long but simple tab for
HERE WE GO AGAIN another kik ass song by SR-71.

please rate this along with my other tabs for
SR-71 which are : Broken Handed, Empty Spaces ver.1,
		  Fame, Last Man on the Moon, Axl Rose
		  ver. 2, What A Mess, and the shit ver.
		  of Lucky but u dont have to rate that 1.
Comments