Sr-71 - Hello Hello Chords & Tabs

 

Hello Hello Chords & Tabs

Sr-71 Chords & Tabs

Version: 2 Type: Tab 0 ratings
1 star 2 stars 3 stars 4 stars 5 stars
comments

Hello Hello Tab

   
Even though the other tab for this song is pretty much
exactly right, I noticed its missing a lot so here's
a way more detailed tab for Hello Hello by SR-71

Tabbed By: Mike

~ = let ring
b = bend string
r = release bend
h = hammer on
p = pull off
v = vibrato

HALF A STEP DOWN AND DROP D

Intro:
        rhythm
eb------------------------------|
Bb------------------------------|
Gb--77777777--------------------|
Db--777777777777777755555555-5~-|
Ab--555555557777777755555555-5~-|
Db--000000007777777755555555-5~-|

        lead
eb--------0-----2-----0-2-0---------0-----3~---2p0h2~-|
Bb--3-------------------------3-----------------------|
Gb-----2-----2-----2--------2----2-----2--------------|
Db----------------------------------------------------|
Ab----------------------------------------------------|
Db----------------------------------------------------|

Verse - rhtyhm - strum each chord 2x

  (Bm)(D)(G)(A)
eb--2--2--3--0--  - play this progression--| 4x
Bb--3--3--3--3-----------------------------|    for the entire verse
Gb--4--2--0--3-----------------------------|
Db--4--0--0--3-----------------------------|
Ab--2-----2--------------------------------|
Db-----------------------------------------|


eb--7--
Bb--7-- the lead plays this once at the
Gb----- beginning of the 3rd and 4th time
Db----- the above progression is played.
Ab-----
Db-----


Pre-Chorus - rhtythm strum each chord as
             much as needed.

eb--0-----3-----0----------|
Bb--0-----3-----0----------|
Gb--0-----0-----0----------|
Db--2---4-5---4-2---5---7--|
Ab--2---4-5---4-2---5---7--|
Db--2---4-5---4-2---5---7--|

   lead - strum each as needed
eb-------------------------|
Bb-------------------------|
Gb-------------------------|
Db--2---4-5---4-2---5---7--|
Ab--2---4-5---4-2---5---7--|
Db--2---4-5---4-2---5---7--|


Chorus 1:
	rhtythm
eb-------------------------------------------|
Bb-------------------------------------------|
Gb--7-----------------------7----------------|
Db--0----7----5-------------0----7----5--8~--|
Ab--0----7----5-------------0----7----5--8~--|
Db--0----7----5----5--4-2---0----7----5--8~--|

	lead - 2x
eb------------------------------------|
Bb--5b(7)~--5b(7)rb(7)~-5b(7)r-3--8~--|
Gb------------------------------------|
Db------------------------------------|
Ab------------------------------------|
Db------------------------------------|

After the chorus they play this which i
like to call the

Pre-Verse:

  rhythm - with distortion
eb--2--2--3--0--|
Bb--3--3--3--3--|  play x2
Gb--4--2--0--3--|
Db--4--0--0--3--|
Ab--2-----2-----|
Db--------------|

  lead - play x2
eb--------0-----2-----0-2-0----|
Bb--3--------------------------|
Gb-----2-----2-----2--------2--|
Db-----------------------------|
Ab-----------------------------|
Db-----------------------------|

NOW PLAY THE VERSE AGAIN
*its exactly the same as
 verse 1 except the lead
 starts right from the
 beginning of the verse.


AFTER THAT PLAY THE PRE-CHORUS AGAIN.

Chorus 2:
	rhtythm x2
eb------------------------|
Bb------------------------|
Gb--7---------------------|
Db--0----7----5-----------|
Ab--0----7----5-----------|
Db--0----7----5----5--4-2-|

	lead - 2x
eb------------------------------------|
Bb--5b(7)~--5b(7)rb(7)~-5b(7)r-3--8~--|
Gb------------------------------------|
Db------------------------------------|
Ab------------------------------------|
Db------------------------------------|


Solo:  lead

eb--9b(10)r-----9b(10)r---9b(10)r---9b(10)rb(10)rb(10)r-|
Bb----------10---------8---------7----------------------|
Gb------------------------------------------------------|
Db------------------------------------------------------|
Ab------------------------------------------------------|
Db------------------------------------------------------|

eb------------------------------------------9b(10)r-14b(15)r-|
Bb-----------------------------------------------------------|
Gb---------------------------------11b(12)r------------------|
Db-11-12---11b(12)r-14----11b(12)r---------------------------|
Ab-----------------------------------------------------------|
Db-----------------------------------------------------------|
[ Tab from: http://www.guitartabs.cc/tabs/s/sr_71/hello_hello_tab_ver_2.html ]
eb--9b(10)r-----9b(10)r---9b(10)r---9b(10)r--14b(15)r---------------|
Bb----------10---------8---------7---------7------------------------|
Gb------------------------------------------------------------------|
Db----------------------------------------------------11h12p11b(12)-|
Ab------------------------------------------------------------------|
Db------------------------------------------------------------------|

eb---------------------------------------9h10-14--|
Bb--5/7-5--7/8-7--8/10-8--10/12-10----------------|
Gb---------------------------------11h12----------|
Db------------------------------------------------|
Ab------------------------------------------------|
Db------------------------------------------------|

eb-------------------------9h10-10v-|
Bb-------------------10h12----------|
Gb-------------11h12----------------|
Db-12\11-11h12----------------------|
Ab----------------------------------|
Db----------------------------------|

rhythm behind solo

eb-----------------------------------|
Bb-----------------------------------|
Gb--77777777-------------------------|
Db--00000000777777779999777755557777-|
Ab--00000000777777779999777755557777-|
Db--00000000777777779999777755557777-|

eb-----------------------------------|
Bb-----------------------------------|
Gb--77777777-------------------------|
Db--00000000777777779999777755555554-|
Ab--00000000777777779999777755555554-|
Db--00000000777777779999777755555554-|


Final Pre-Chorus:

 rhtyhm - strum each as needed but hold the last chord
eb--0-----3-----0------|
Bb--0-----3-----0------|
Gb--0-----0-----0------|
Db--2---4-5---4-2---5~-|
Ab--2---4-5---4-2---5~-|
Db--2---4-5---4-2---5~-|

  lead - little riff in between
eb--14b(15)r--------17b(19)r---15151514b(15)r-|
Bb-----------1717p15--------------------------|
Gb--------------------------------------------|
Db--------------------------------------------|
Ab--------------------------------------------|
Db--------------------------------------------|


Chorus (quiet) - strum each chord as much as needed

eb--2-2----0-0----3-|
Bb--3--3---3--0---3-|
Gb--2---2--3---2--0-|
Db--0----0-3----2-5-|
Ab----------------5-|
Db----------------5-|

 then the distortion kicks in
eb----------|
Bb----------|
Gb----------|
Db----------|
Ab----------|
Db--5--4-2--|


Final Chorus:

	rhtythm
eb------------------------------------------------|
Bb------------------------------------------------|
Gb--7-----------------------7---------------------|
Db--0----7----5-------------0----7----5-----------|
Ab--0----7----5-------------0----7----5-----------|
Db--0----7----5----5--4-2---0----7----5----5--4-2-|

             | Ends On:
eb-----------|----------|
Bb-----------|----------|
Gb--7--------|----------|
Db--0----7---|-9--7--5~-|
Ab--0----7---|-9--7--5~-|
Db--0----7---|-9--7--5~-|

	lead
eb------------------------------------|
Bb--5b(7)~--5b(7)rb(7)~-5b(7)r-3--8~--|
Gb------------------------------------|
Db------------------------------------|
Ab------------------------------------|
Db------------------------------------|

eb------------------------------------|
Bb--5b(7)~--5b(7)rb(7)~-5b(7)r-3--8~--|
Gb------------------------------------|
Db------------------------------------|
Ab------------------------------------|
Db------------------------------------|

                                 | lead ends on:
eb-------------------------------|--------------------------|
Bb--5b(7)~--5b(7)rb(7)~-5b(7)r-3-|-12~--10b(12)rb(12)r--12~-|
Gb-------------------------------|--------------------------|
Db-------------------------------|--------------------------|
Ab-------------------------------|--------------------------|
Db-------------------------------|--------------------------|


I also noticed that for the last chorus they over-tracked
so it sounds as if there are 3 guitars playing.

If you have a third guitarist this is what they would play:

eb--------0-----2-----0-2-0----|
Bb--3--------------------------|  x5
Gb-----2-----2-----2--------2--|
Db-----------------------------|
Ab-----------------------------|
Db-----------------------------|

then they would end with

eb--------0-----2-----0----2---0-2-0------|
Bb--3----------------------------------3~-|
Gb-----2-----2-----2-----2---2-------2----|
Db----------------------------------------|
Ab----------------------------------------|
Db----------------------------------------|


Order:

Intro
Verse
Pre-Chorus
Chorus 1
Pre-Verse
Verse
Pre-Chorus
Chorus 2
Solo
Final Pre-Chorus
Chorus (quiet)
Final Chorus


Well there you go. I know its kinda confusing
but once you get the hang of it, its actually
a fairly simple song to play.
Comments