Sr-71 - Everything Chords & Tabs

 

Everything Chords & Tabs

Sr-71 Chords & Tabs

Version: 1 Type: Tab 0 ratings
1 star 2 stars 3 stars 4 stars 5 stars
comments

Everything Tab

   
Tabbed By: Mike

pm = palm mute
/ = slide up
~ = let ring


	- I dont know why i tabbed this half a step down
	  it probably would be a little easier to play
	  it in standard tuning and a fret down but what
	  the fuck it works either way -


Intro:
        rhythm
eb------------------------------------|
Bb------------------------------------|
Gb------------------------------------| x2
Db--33333333777777775555555555555555--|
Ab--33333333777777775555555555555555--|
Eb--11111111555555553333333333333333--|

	lead
eb---10-8-----8----10-8-----8----10-8-----8--10-1210-8--10-8-|
Bb---------8----8--------8----8--------8----8----------------| x2
Gb-----------------------------------------------------------|
Db-----------------------------------------------------------|
Ab-----------------------------------------------------------|
Eb-----------------------------------------------------------|

Verse 1:

eb--------------------------3-------|
Bb--------------------------3-------|
Gb----------------------------------|
Db-3333333377777777555555555-555555-|
Ab-3333333377777777555555555-555555-|
Eb-1111111155555555333333333-333333-|
 pm ....... ....... ........ ......

eb--------------------------3--3-3--|
Bb--------------------------3--3-3--|
Gb-----------------------------3-3--|
Db-3333333377777777555555555-555555-|
Ab-3333333377777777555555555-55-5-5-|
Eb-1111111155555555333333333-33-3-3-|
 pm ....... ....... ........ .. . .

Pre Chorus:
		rhythm
eb----------------------------------|
Bb----------------------------------|
Gb----------------------------------|
Db-33333333777777775555555555555555-
Ab-33333333777777775555555555555555-
Eb-11111111555555553333333333333333-
pm  .. .. . .. .. . .. .. . .. .. .

eb----------------------------------|
Bb----------------------------------|
Gb---------55555555-----------------|
Db-33333333555555555555555555555555-
Ab-33333333333333335555555555555555-
Eb-11111111333333333333333333333333-

		lead
eb--------------------------------------|
Bb----6---6-8-(x3)-then:-8-10-12-13--15-|
Gb-6/7-7-9-9-------------x--x--x--x---x-|
Db-----------------------5--7--9/10--12-|
Ab--------------------------------------|
Eb--------------------------------------|


Chorus 1:
	rhythm
eb----------------------------------|
Bb----------------------------------|
Gb----------------------------------|
Db---------55555555-----------------|
Ab-33333333333333335555555555555555-
Eb-11111111--------3333333333333333-
 pm................................

eb----------------------------------|
Bb----------------------------------|
Gb----------------------------------|
Db---------555555555555555555555555-|
Ab-33333333333333335555555555555555-
Eb-11111111--------3333333333333333-
 pm................

	lead
eb---10-8-----8----10-8-----8----10-8-----8--10-1210-8--10-8-|
Bb---------8----8--------8----8--------8----8----------------| x2
Gb-----------------------------------------------------------|
Db-----------------------------------------------------------|
Ab-----------------------------------------------------------|
Eb-----------------------------------------------------------|

Verse 2:

eb--------------------------3--3-3--|
Bb--------------------------3--3-3--|
Gb-----------------------------3-3--|
Db-3333333377777777555555555-555555-|
Ab-3333333377777777555555555-55-5-5-|
Eb-1111111155555555333333333-33-3-3-|
 pm ....... ....... ........ .. . .

eb--------------------------3--3-3--|
Bb--------------------------3--3-3--|
Gb-----------------------------3-3--|
Db-3333333377777777555555555-555555-|
Ab-3333333377777777555555555-55-5-5-|
Eb-1111111155555555333333333-33-3-3-|
 pm ....... ....... ........ .. . .


Pre Chorus: same as before the 1st chorus

		rhythm
eb----------------------------------|
Bb----------------------------------|
Gb----------------------------------|
Db-33333333777777775555555555555555-
Ab-33333333777777775555555555555555-
Eb-11111111555555553333333333333333-
pm  .. .. . .. .. . .. .. . .. .. .

eb----------------------------------|
Bb----------------------------------|
Gb---------55555555-----------------|
Db-33333333555555555555555555555555-
Ab-33333333333333335555555555555555-
Eb-11111111333333333333333333333333-
[ Tab from: http://www.guitartabs.cc/tabs/s/sr_71/everything_tab.html ]
		lead
eb--------------------------------------|
Bb----6---6-8-(x3)-then:-8-10-12-13--15-|
Gb-6/7-7-9-9-------------x--x--x--x---x-|
Db-----------------------5--7--9/10--12-|
Ab--------------------------------------|
Eb--------------------------------------|

Chorus 2:
	rhythm
eb----------------------------------|
Bb----------------------------------|
Gb----------------------------------|
Db---------55555555-----------------|
Ab-33333333333333335555555555555555-
Eb-11111111--------3333333333333333-
 pm................................

eb----------------------------------|
Bb----------------------------------|
Gb----------------------------------|
Db---------555555555555555555555555-|
Ab-33333333333333335555555555555555-
Eb-11111111--------3333333333333333-
 pm................

eb----------------------------------|
Bb----------------------------------|
Gb---------55555555-----------------|
Db-33333333555555555555555555555555-
Ab-33333333333333335555555555555555-
Eb-11111111333333333333333333333333-

eb----------------------------------|
Bb----------------------------------|
Gb---------55555555-----------------|
Db-33333333555555555555555555555555-
Ab-33333333333333335555555555555555-
Eb-11111111333333333333333333333333-

	lead
eb---10-8-----8----10-8-----8----10-8-----8--10-1210-8--10-8-|
Bb---------8----8--------8----8--------8----8----------------| x4
Gb-----------------------------------------------------------|
Db-----------------------------------------------------------|
Ab-----------------------------------------------------------|
Eb-----------------------------------------------------------|

Bridge:

eb----------------------------------|
Bb----------------------------------|
Gb------------------------10-109-79-|
Db-7777777777777777333333310-109-79-|
Ab-77777777777777773333333-8--87-57-|
Eb-55555555555555551111111----------|

eb-------------------------------------|
Bb-------------------------------------|
Gb-5555555555555555---------1010109977-|
Db-55555555555555555557779991010109977-
Ab-3333333333333333555777999-8-8-87755-|
Eb-----------------333555777-----------|

eb------------------------------------|
Bb------------------------------------|
Gb------------------------10-109-1210-|
Db-7777777777777777333333310-109-1210-|
Ab-77777777777777773333333-8--87-10-8-|
Eb-55555555555555551111111------------|

eb----------------------------------|
Bb----------------------------------|
Gb-5555555555555555-----------------|
Db-55555555555555555555555555555555-
Ab-33333333333333335555555555555555-
Eb-----------------3333333333333333-

Then it plays this before the final chorus:

	-for organizational purposes I'll call it
	 the FINAL PRE CHORUS:
eb----------------------------------------------------|
Bb----------------------------------------------------|
Gb----------------------------------------------------|
Db----------------------------------------------------|
Ab-3333333377777777775555555555555533333333777777775~-
Eb-1111111155555555333333333333333311111111555555553~-
pm ................................................

  rhythm            |  lead
eb------------------|----------------|
Bb------------------|-8-10-12/13--15-|
Gb------------------|-x--x--x--x---x-|
Db-5555555555555555-|-5--7--9/10--12-|
Ab-5555555555555555-|----------------|
Eb-3333333333333333-|----------------|


Final Chorus/Outro:
		rhythm

eb----------------------------------|
Bb----------------------------------| x7
Gb---------55555555-----------------|
Db-33333333555555555555555555555555-
Ab-33333333333333335555555555555555-
Eb-11111111--------3333333333333333-

   rhythm then ends on
eb------------|
Bb------------|
Gb-----5~-----|
Db-3~--5~--5~-|
Ab-3~--3~--5~-|
Eb-1~------3~-|

		lead

eb---10-8-----8----10-8-----8----10-8-----8--10-1210-8--10-8-|
Bb---------8----8--------8----8--------8----8----------------| x4
Gb-----------------------------------------------------------|
Db-----------------------------------------------------------|
Ab-----------------------------------------------------------|
Eb-----------------------------------------------------------|

then there's a solo here that i can't figure out but i know it
starts in Gb (high e string 15th fret)


ORDER:

Intro
Verse 1
Pre Chorus
Chorus 1
Verse 2
Pre Chorus
Chorus 2
Bridge
Final Pre Chorus
Final Chorus/Outro

k. i finally became a UG member so this is the first
song thats gonna be under my user name but this is like
the 12th tab for SR-71 ive subbmitted so please rate.
Comments