Sr-71 - Blue Light Special Life Chords & Tabs

 

Blue Light Special Life Chords & Tabs

Sr-71 Chords & Tabs

Version: 1 Type: Tab 0 ratings
1 star 2 stars 3 stars 4 stars 5 stars
comments

Blue Light Special Life Tab

Tuning:Standard
b = bend string
* = harmonics
/ = slide up
\ = slide down
Both guitars play distorted with some reverb.

Intro
Lead Guitar:
e|--------------|--------------|--------------|
b|---------9----|---------9----|----------9---|
g|-----11-------|-----11-------|------11------|
d|--9-9---------|--9-9---------|--9-9---------|
a|--------------|--------------|--------------|
e|--------------|--------------|--------------|

Rhythm Guitar:
e|-----------|--------|---------|-------|--------|-------|-----|-----|
b|-----------|--------|---------|-------|--------|-------|--9--|--9--|
g|-----------|--------|---------|-------|--------|-------|-11--|-11--|
d|--9--------|--4-----|--6------|--2----|--9-----|--4----|--9--|--9--|
a|--9--------|--4-----|--6------|--2----|--9-----|--4----|-----|-----|
e|--7--------|--2-----|--4------|--0----|--7-----|--2----|-----|-----|

Verses
Rhythm Guitar:
On first chord progression after striking each chord once, palm mute it.

e|-----|------|------|------|------|-----|-------|------|
b|-----|------|------|------|------|-----|-------|------|
g|-----|------|------|------|------|-----|-------|------|
d|--8--|-10---|--13--|--13--|--8---|-10--|--13---|--13--|
a|--8--|-10---|--13--|--13--|--8---|-10--|--13---|--13--|
e|--6--|--8---|--11--|--11--|--6---|--8--|--11---|--11--|

Lead Guitar:
e|----------------------|------------9b-----------|
b|----------------------|----------------10b------|
g|-----------7b---------|-------------------------|
d|---6b-4-6-------7b----|----------6b-------------|
a|----------------------|--------7----------------|
e|----------------------|----7\5------------------|

Chorus: Both Guitars (same as intro for rhythm guitar) Play this twice.
e|-------|------|------|-----|------|------|------|------|
b|-------|------|------|-----|------|------|--9---|--9---|
g|-------|------|------|-----|------|------|-11---|-11---|
d|--9----|--4---|--6---|--2--|--9---|--4---|--9---|--9---|
a|--9----|--4---|--6---|--2--|--9---|--4---|------|------|
e|--7----|--2---|--4---|--0--|--7---|--2---|------|------|

Lead Guitar:
e|--------------|------------|
b|--------9-----|--------9---|
g|-----11-------|------11----|
d|--9-9---------|--9-9-------|
a|--------------|------------|
e|--------------|------------|

Verses
Rhythm Guitar: (hit first chord, then after bass line hit each chord a few times)

e|-----|--------|-------|------|
b|-----|--------|-------|------|
g|-----|--------|-------|------|
d|--8--|--10----|--13---|--13--|
a|--8--|--10----|--13---|--13--|
e|--6--|---8----|--11---|--11--|

Lead Guitar:
e|------------------------|-----------------6b--------|
b|--6b--6b--6b--6b--6b----|--6b--6b--6b--8-----8---6--|
g|------------------------|---------------------------|
d|------------------------|---------------------------|
a|------------------------|---------------------------|
e|------------------------|---------------------------|

e|---------------------------------------------|
b|---------------------------------------------|
g|---------------------------------------------|
d|--8b--8b--6b---4b--4b--4b/8b--8b--6b--4b--4b-|
a|---------------------------------------------|
e|---------------------------------------------|

Pre-Chorus
Rhythm Guitar

e|-----|------|
b|-----|------|
g|-----|------|
d|-10--|--8---|
a|-10--|--8---|
e|--8--|--6---|

Pre-Chorus
Lead Guitar
e|--------|
b|--------|
g|--------|
d|--------|
a|--10b---|
e|--------|
[ Tab from: http://www.guitartabs.cc/tabs/s/sr_71/blue_light_special_life_tab.html ]
Chorus: Both Guitars (same as intro for rhythm guitar)
e|-------|------|------|-----|-------|-------|------|-----|
b|-------|------|------|-----|-------|-------|--9---|--9--|
g|-------|------|------|-----|-------|-------|-11---|-11--|
d|--9----|--4---|--6---|--2--|--9----|--4----|--9---|--9--|
a|--9----|--4---|--6---|--2--|--9----|--4----|------|-----|
e|--7----|--2---|--4---|--0--|--7----|--2----|------|-----|

e|-------|------|------|-----|-------|------|------|-----|-----|----|
b|-------|------|------|-----|-------|------|--9---|--9--|-----|----|
g|-------|------|------|-----|-------|------|-11---|-11--|-----|----|
d|--9----|--4---|--6---|--2--|--9----|--4---|--9---|--9--|--8--|--8-|
a|--9----|--4---|--6---|--2--|--9----|--4---|------|-----|--8--|--8-|
e|--7----|--2---|--4---|--0--|--7----|--2---|------|-----|--6--|--6-|

Interlude
He's going up and down one string with harmonics using some kind of phaser, then he uses 
to play the chorus. The leads come in shortly after.

Lead Guitar: (Phaser)
e|------------------------------------------------------------------|
b|------------------------------------------------------------------|
g|------------------------------------------------------------------|
d|--9*--9*--9*--9*--7*--7*--7*--7*--5*--7*--7*--7*--9*--9*--9*--9*--|
a|------------------------------------------------------------------|
e|------------------------------------------------------------------|

Rhythm Guitar:
e|-------|------|------|-----|--------|-------|-------|
b|-------|------|------|-----|--------|-------|-------|
g|-------|------|------|-----|--------|-------|-------|
d|-9-----|-4----|-6----|-2---|-9------|-4-----|--6----|
a|-9-----|-4----|-6----|-2---|-9------|-4-----|--6----|
e|-7-----|-2----|-4----|-0---|-7------|-2-----|--4----|

he repeats this part several times
e|-------|------|------|-----|-------|------|------|------|
b|-------|------|------|-----|-------|------|---9--|---9--|
g|-------|------|------|-----|-------|------|--11--|--11--|
d|--9----|--4---|--6---|--2--|--9----|--4---|---9--|---9--|
a|--9----|--4---|--6---|--2--|--9----|--4---|------|------|
e|--7----|--2---|--4---|--0--|--7----|--2---|------|------|

Fill:
e|------------------------|-----------------------|---------------------|
b|------------------------|-----------------------|---------------------|
g|--6b--6----6--7--6------|--6b--6---6--7--6------|--6b--6---6--7--6----|
d|----7----9----------7---|----7---9----------7---|----7---9--------7---|
a|------------------------|-----------------------|---------------------|
e|------------------------|-----------------------|---------------------|

End on:
e|------|-----|
b|------|-----|
g|------|-----|
d|--13--|--8--|
a|--13--|--8--|
e|--11--|--6--|

Lyrics:

Verse 1

There's a hole in my goodwill shoes
From walking down this east side street too long.
I'm trying to get out,
Get out while I can.
'Cause this town's wandering,
Years have come and gone.

Chorus

I can't express myself.
I just impress myself.
Of all your choices man,
You think you just could've got one right.

I never wanted this.
Dirty white trash kiss.
Thanks for giving me your blue life special life.

Verse 2

The kid next door with the filthy face
Scrapes his gum right off the sidewalk.
A ripped t-shirt, a new used pair of jeans,
He's the clothesline collector backyard parking lot.

Pre-Chorus

Now I know
This is all your fault.

Chorus

Interlude

N-|ah-nah-nah-nah-nah-nah-nah-nah
N-|ah-nah-nah-nah-nah-nah-nah.
"                   "   2 more times

Chorus

Nah-nah-nah....
(chorus in background)
Attention K-mart shoppers.
Comments