Sr-71 - Blood And Bourbon Chords & Tabs

 

Blood And Bourbon Chords & Tabs

Sr-71 Chords & Tabs

Version: 1 Type: Tab 0 ratings
1 star 2 stars 3 stars 4 stars 5 stars
comments

Blood And Bourbon Tab

Tabbed By: Mike

\ = slide down
~ = let ring

 -Drop D half a step down-

Intro:

eb------------------------------------------------------------|
Bb------------------------------------------------------------|
Gb------------------------------------------------------------|
Db------------------------------------------------------------|
Ab------------------------------------------------------------|
Db--7-7-777-0-0-000-3-3-333-5-5-555-7-7-777-0-0-000-3-3-333-5-|

  Strum as needed
eb---------------------------------------|
Bb---------------------------------------|
Gb--9----7----5----7----9----7----5----7-|
Db--7----7----5----5----7----7----5----5-|
Ab--7----0----3----5----7----0----3----5-|
Db--7----0----3----5----7----0----3----5-|

 Verse:
eb------------------------------------------------|
Bb------------------------------------------------|  x2
Gb--9999999999999999-------------7777777777777777-|
Db--9999999999999999-\-----------7777777777777777-|
Ab--7777777777777777-\-----------0000000000000000-|
Db--7777777777777777-\-----------0000000000000000-|

 then
eb-----------------------------------------------|
Bb-----------------------------------------------|
Gb--55-555-55-555-55-555-55-555-77-777-77-77777\-|
Db--55-555-55-555-55-555-55-555-55-555-55-55555\-|
Ab--33-333-33-333-33-333-33-333-55-555-55-55555\-|
Db--33-333-33-333-33-333-33-333-55-555-55-55555\-|

Chorus:

  Strum as needed
eb-------------------|
Bb-------------------| x4
Gb--9----7----5----7-|
Db--7----7----5----5-|
Ab--7----0----3----5-|
Db--7----0----3----5-|

Play the verse again (both verses are identical)

Now Play the chorus again

[ Tab from: http://www.guitartabs.cc/tabs/s/sr_71/blood_and_bourbon_tab.html ]
Bridge:
eb-----------------------------------------------------|
Bb-----------------------------------------------------|
Gb--55--55-55--77--77-77--99-999-99-999-99-999---9-999-|
Db--55--55-55--77--77-77--77-777-77-777-77-777-107-777-|
Ab--33--33-33--55--55-55--77-777-77-777-77-777-107-777-|
Db------------------------77-777-77-777-77-777-107-777-|

eb-------------------------------------------------------|
Bb-------------------------------------------------------|
Gb--55--55-55--77--77-77--99-999-99-99---99-999---9-999--|
Db--55--55-55--77--77-77--77-777-77-7710-77-777-107-777--|
Ab--33--33-33--55--55-55--77-777-77-7710-77-777-107-777--|
Db------------------------77-777-77-7710-77-777-107-777--|

eb----------------------------------------------------------|
Bb----------------------------------------------------------|
Gb----------------------------------------------------------|
Db--33-333-33-333-55-555-55-555-00-000-00-000-00-000-00-000-|
Ab--33-333-33-333-55-555-55-555-00-000-00-000-00-000-00-000-|
Db--33-333-33-333-55-555-55-555-00-000-00-000-00-000-00-000-|

eb---------------------------------|
Bb---------------------------------|
Gb------------------------------9~-|
Db--33-333-33-333-55-555-55-555-7~-|
Ab--33-333-33-333-55-555-55-555-7~-|
Db--33-333-33-333-55-555-55-555-7~-|

  After that last chord it goes immediately into the intro

- after you play the intro here then PLAY THE CHORUS 2x


Outro:

eb------------------------------------------------|
Bb------------------------------------------------|
Gb------------------------------9999999999999999~-|
Db--33-333-33-333-55-555-55-555-9999999999999999~-|
Ab--33-333-33-333-55-555-55-555-7777777777777777~-|
Db--33-333-33-333-55-555-55-555-7777777777777777~-|


If for sum reason u get confused here's the order in
which the song is played.


	INTRO
	VERSE
	CHORUS
	VERSE
	CHORUS
	BRIDGE
	INTRO
	CHORUS (2x)
	OUTRO

please rate along with any other SR-71 tabs.
Comments