Sr-71 - Axl Rose Chords & Tabs

 

Axl Rose Chords & Tabs

Sr-71 Chords & Tabs

Version: 2 Type: Tab 0 ratings
1 star 2 stars 3 stars 4 stars 5 stars
comments

Axl Rose Tab

   
Tabbed By: Mike

~ = let ring
pm = palm mute
h = hammer on
b = bend string
\ = slide down
/ = slide up

Intro:

eb------------------------------------------------|
Bb------------------------------------------------|
Gb-7-7--------------------------------------------|
Db-7-7--77777--5~--7777777777777777---------------|
Ab-5-5--77777--5~--7777777777777777---------------|
Eb------55555--3~--5555555555555555---------------|
pm                  ...............

eb----------15--14------------15------------------|
Bb---15----------------15------------15-----------|
Gb-----14-12--14--14-----14-12--14-12-------------|
Db-12----------------12---------------------------|
Ab------------------------------------------------|
Eb------------------------------------------------|


Verse:

eb------------------------------------------------|
Bb------------------------------------------------|
Gb--77-------------------77-----------------------|
Db--77----77----55-------77----77----55-------88--|
Ab--55----77----55-------55----77----55-------88--|
Eb--------55----33-------------55----33-------66--|


eb---------------------------------------|
Bb---------------------------------------|
Gb--77777777-----------------------------|
Db--77777777777777775555555555555555-88--|
Ab--55555555777777775555555555555555-88--|
Eb----------555555553333333333333333-66--|
pm   ....... ....... ...............

eb------------------------------------------------|
Bb------------------------------------------------|
Gb--77777777--------------------------------------|
Db--7777777777777777-5~----5~-5~------55~---55----|
Ab--5555555577777777-5~----5~-5~------55~---55----|
Eb----------55555555-3~----3~-3~------33~---33----|

Chorus1 - play 2x

eb---------------------------------|
Bb---------------------------------|
Gb--7-7----------------------------|
Db--7-7--77777----5555555577777777-|
Ab--5-5--77777----5555555577777777-|
Eb-------55555----3333333355555555-|


after the chorus the lead plays this little riff:

eb----------------------| (play 2x)
Bb-----33-3----7-7b\5-3-|
Gb--2h4----4-2----------|
Db----------------------|
Ab----------------------|
Eb----------------------|

play verse again except hold the last-> eb-----
a little longer.                        Bb-----
                                        Gb-----
                                        Db--5--
                                        Ab--5--
                                        Eb--3--

Chorus 2:
         rhythm (2x)

eb----------------------------------|
Bb----------------------------------|
Gb-77777777-------------------------|
Db-77777777777777775555555577777777-
Ab-55555555777777775555555577777777-
Eb---------555555553333333355555555-

 	 lead:
eb------17--15--15--------17--15--15---|
Bb-15-15--15--15--15--------15--15--15-|
Gb-------------------14-14-------------|
Db-------------------------------------|
Ab-------------------------------------|
Eb-------------------------------------|

eb------17--15--15--------17--15--14---|
Bb--------15--15--15--------15--15--14-|
Gb-12-12-------------14-14-------------|
Db-------------------------------------|
Ab-------------------------------------|
Eb-------------------------------------|


Bridge:
	rhythm
eb-------------------------------------------|
Bb-------------------------------------------|
Gb-----------------777777771212121212121212--|
Db-5555555577777777777777771212121212121212--|
Ab-5555555577777777555555551010101010101010--|
Eb-3333333355555555--------------------------|

eb-------------------------------------------|
Bb-------------------------------------------|
Gb-----------------777777771212121212121212--|
Db-5555555577777777777777771212121212121212--|
Ab-5555555577777777555555551010101010101010--|
Eb-3333333355555555--------------------------|
[ Tab from: http://www.guitartabs.cc/tabs/s/sr_71/axl_rose_tab_ver_2.html ]
eb------------------------------------------------|
Bb------------------------------------------------|
Gb------------------------------------------------|
Db-55555555555555557777777777777777---------------|
Ab-55555555555555557777777777777777---------------|
Eb-33333333333333335555555555555555---------------|
pm                  ...............


	lead
*note: im not 100% sure how this really goes
       so i just play this - it works for me.
*note2: there are no single digit #s in
        here everything you see is 11,
        12,14 etc. not 1 2 3 4.
eb--------------------------------------|
Bb--------------------------------------|
Gb--12-11-121212-1111-14-12-141414-1212-|
Db--------------------------------------|
Ab--------------------------------------|
Eb--------------------------------------|

eb------------------15-151515-15151414--|
Bb--15-151515151414---------------------|
Gb--------------------------------------|
Db--------------------------------------|
Ab--------------------------------------|
Eb--------------------------------------|

eb--------------------------------------|
Bb--------------------------------------|
Gb--12-11-121212-1111-14-12-141414-1212-|
Db--------------------------------------|
Ab--------------------------------------|
Eb--------------------------------------|

eb------------------15-151515-15151414--|
Bb--------------------------------------|
Gb--16-14-161616-14---------------------|
Db--------------------------------------|
Ab--------------------------------------|
Eb--------------------------------------|

eb-----------------------------------|
Bb-----------------------------------|
Gb--12121212121111-12-12121212121212-|
Db-----------------------------------|
Ab-----------------------------------|
Eb-----------------------------------|


eb----------------------------|
Bb----------------------------|
Gb-14-14141414-14-------------|b-(*SLOWLY bend and release last note)
Db----------------------------|
Ab----------------------------|
Eb----------------------------|

After the bridge play that small riff again:
  (this is it if u dont wanna scroll up)
eb----------------------| (play 2x)
Bb-----33-3----7-7b\5-3-|
Gb--2h4----4-2----------|
Db----------------------|
Ab----------------------|
Eb----------------------|


Final Chorus:
		rhythm    PT.1
eb------------------------------------|
Bb------------------------------------|
Gb-7-7---------7-7--------------------|
Db-7-7--77777--7-7--77777--5-5--77777-|
Ab-5-5--77777--5-5--77777--5-5--77777-|
Eb------55555-------55555--3-3--55555-|

  then play following 2x: PT.2
eb------------------|-----------------|
Bb------------------|-----------------|
Gb------------------|-----------------|
Db---22222222999999997777777799999999-|
Ab---22222222999999997777777799999999-|
Eb---00000000777777775555555577777777-|
                    |
		    |lead (2x)
eb------------------|----19--17--17-------19--17--16---|
Bb------------------|------17--17--17-------17--17--16-|
Gb------------------|1414-------------1616-------------|
Db------------------|----------------------------------|
Ab------------------|----------------------------------|
Eb------------------|----------------------------------|


Outro:

eb----------------------------------|
Bb----------------------------------|
Gb-------------------------66666666-|
Db-77777777999999992222222266666666-
Ab-77777777999999992222222244444444-
Eb-555555557777777700000000---------

	           |End On:
eb-----------------|-----|
Bb-----------------|-----|
Gb-----------------|-----|
Db-7777777799999999|--2~-|
Ab-7777777799999999|--2~-|
Eb-5555555577777777|--0~-|

I dont know the solo thats played behind the outro
 but here's how it ends:


eb--------------------------------------|
Bb--5/7-5---------------5/7\5-8~--8\----|
Gb--4/6-4-4/6-4---------4/6\4-7~--7\----|
Db--------4/6-4-2~----------------------|
Ab--------------2~----------------------|
Eb--------------------------------------|

Ok thats it. Any questions or comments u can
e-mail me at superfly_39@hotmail.com
Comments