Sr-71 - Axl Rose Chords & Tabs

 

Axl Rose Chords & Tabs

Sr-71 Chords & Tabs

Version: 1 Type: Tab 0 ratings
1 star 2 stars 3 stars 4 stars 5 stars
comments

Axl Rose Tab

---------------------------------------------------------------------------------
                         Axl Rose-SR71
----------------------------------------------------------------------------------
Tabbed By: Andrew Seegers
Tuning: Standard

These are just the main chords.  Pretty Simple.  There are a whole bunch of little riffs
scattered throughout that I'll probably tackle another day.  Enjoy!

Intro
E-------------------------------------------------------------------------|
B-------------------------------------------------------------------------|
G--6-6--------------------------------------------------------------------|
D--6-6-----------------6-6-6-6-6--------------------4----6-6-6-6-6-6-6-6--|
A--4-4-----------------6-6-6-6-6--------------------4----6-6-6-6-6-6-6-6--|
E----------------------4-4-4-4-4--------------------2----4-4-4-4-4-4-4-4--|

              WOOO.....OOOOOH         Where did you Go?!  Axl Roooosseeee
Verses (It's this same chord prgression)

E----------------------------------------------------------------------------|
B----------------------------------------------------------------------------|
G--6-6-----------------------------------------------------------------------|
D--6-6-----------------6-6----------------4-4--------------------------------|
A--4-4-----------------6-4----------------4-4--------------------------------|
E----------------------2-2----------------2-2--------------------------------|
      Angel lives alone   East Baltimore     Eviction notice stapled to her..

Chorus
[ Tab from: http://www.guitartabs.cc/tabs/s/sr_71/axl_rose_tab.html ]
E----------------------------------------------------------------------------|
B----------------------------------------------------------------------------|
G--6-6-----------------------------------------------------------------------|
D--6-6--------6-6-6-6-6---------------4---4-4-4-4--6-6-6-6-------------------|
A--4-4--------6-6-6-6-6---------------4---4-4-4-2--6-6-6-6-------------------|
E-------------4-4-4-4-4---------------2---2-2-2-2--4-4-4-4-------------------|
       WOOO  OOOH       Where did you go?          Axl Rose?
       WOO   OOOH       Where did you go?          Oh Axl....?

Bridge
E------------------------------------------------------------------------------|
B------------------------------------------------------------------------------|
G--6---------------------------------------------------------------------------|
D--6-----------------6---------------------------------------------------------|
A--4-----------------6---------------------------------------------------------|
E--------------------4---------------------------------------------------------|
     She Don't care    She's stuck in the 80's....

Key Change

E-------------------------------------------------------------------|
B-------------------------------------------------------------------|
G--6-6----------------------------------6-6-------------------------|
D--6-6--------6-6-6-6-6-----------------6-6-----6-6-6-6-6----6------|
A--4-4--------6-6-6-6-6-----------------4-4-----6-6-6-6-6----6------|
E-------------4-4-4-4-4-------------------------4-4-4-4-4----4------|
       WOOO   OHHH       Where did you          GOOOO?      Axl!
E------------------------------------------|
B------------------------------------------|
G--7-7-------------------------------------|
D--7-7------7-------------------5--7-------|
A--5-5------7-------------------5--7-------|
E-----------5-------------------3--5-------|
       WOO  OHHH  Where did you go? Axl Rose!
Comments