Sr 71 - Another Night Alone Chords & Tabs

 

Another Night Alone Chords & Tabs

Sr 71 Chords & Tabs

Version: 2 Type: Tab 0 ratings
1 star 2 stars 3 stars 4 stars 5 stars
comments

Another Night Alone Tab

SR-71 - Another Night Alone
Tabbed by Aridotcom@aol.com

[ Tab from: http://www.guitartabs.cc/tabs/s/sr_71/another_night_alone_tab_ver_2.html ]
INTRO
(standard tuning)
e---x---x---x---x---------------------------------|
b---x---x---x---x---------------------------------|
g---8---10--12--10--------------------------------|
d---x---x---x---x---------------------------------| x4
a---6---8---10--8---------------------------------|
E---x---x---x---x---------------------------------|
   x3  x5  x3  x5

VERSE
e---x---|
b---x---|
g---8---|
d---8---|
a---6---|
E---x---|
   x4

e---x---x---x--|
b---x---x---x--|
g---8---10--12-| x4
d---x---x---x--|
a---6---8---10-|
E---x---x---x--|
  x3  x5  x3

e---x---x-x----|
b---x---x-x----|
g---8---8-8----|
d---8---8-8----|a couple of times
a---6---6-6----|
E---x---x-x----|

Chorus is the same thing as intro

sorry but i dont know i dont know the bridge.
Comments