Squier Billy - Lonely Is The Night (intro) Chords & Tabs

 

Lonely Is The Night (intro) Chords & Tabs

Squier Billy Chords & Tabs

Version: 1 Type: Tab 1 rating
1 star 2 stars 3 stars 4 stars 5 stars
comments

Lonely Is The Night (intro) Tab

   
LONELY IS THE NIGHT (intro) - Billy Squier

/= Slide to
h= hammer-on
[ Tab from: http://www.guitartabs.cc/tabs/s/squier_billy/lonely_is_the_night_intro_tab.html ]
E-------0----------------|-------0-------------|--------0-------------------|
B-------0----------------|-------0-------------|--------0-------------------|
G-2/4-4-4---2p1-2p1------|-2/4-4-4---2p1p2-----|--2/4-4-4---2p1-2p1---------|
D--------------------2---|-----------------ring|--------------------2-----2-|
A------------------------|---------------------|----------------------2h4---|
E----------------------0-|---------------------|----------------------------|

E----------------------0--|
B----------------------0--|
G-------------------------|
D------0-----0------------|
A--4/5---4/5----4-2-------|
E-------------------0-----|
Comments