Squad Five-o - Stand Up Chords & Tabs

 

Stand Up Chords & Tabs

Squad Five-o Chords & Tabs

Version: 1 Type: Bass Tab 0 ratings
1 star 2 stars 3 stars 4 stars 5 stars
comments

Stand Up Bass Tab

Stand Up
Squad Five-O
What I Believe
tabbed by jared gardner     punkrawkfreak@hotmail.com

wait until jeff does his little thing on guitar, then the
bass comes in really high:

G|-7-9-9---7-7-5-3-0-|
D|-------------------|
A|-------------------|
E|-------------------|

verse
G|-------5-7-9-----5-5-7--------5-7-9-7-5-3-0-|
D|---------------0----------------------------|
A|-7--7-------------------7--7----------------|
E|--------------------------------------------|

prechorus
G|-----0---3-5-3-0-----0-5-7-5-3-0-|
D|-0-0-------------0-0-------------|
A|---------------------------------|
E|---------------------------------|
[ Tab from: http://www.guitartabs.cc/tabs/s/squad_five_o/stand_up_btab.html ]
chorus riff 1
G|-----------------------------------------------------------------|
D|-----------------------------------------------------------------|
A|-5-5-5-5-5-5-5-5-3-3-3-3-3-3-3-3---------------------------------|
E|---------------------------------3-3-3-3-3-3-3-3-5-5-5-5-5-5-5-5-|

chorus riff 2
G|---------------------------------|
D|---------------------------------|
A|-3-3-3-3-------------------------|
E|---------3-3-3-3-5-5-5-5-5-5-5-5-|

the song ends on chorus riff 2 

not very complicated, actually, just kinda complicated . . .
whatever, i dunno :oP
anyway, this bassline is slower than most old squad, but i'm still
willing to bet i missed something: punkrawkfreak@hotmail.com
let me know, thanx
Comments