Squad Five-o - Bombs Over Broadway Chords & Tabs

 

Bombs Over Broadway Chords & Tabs

Squad Five-o Chords & Tabs

Version: 1 Type: Tab 0 ratings
1 star 2 stars 3 stars 4 stars 5 stars
comments

Bombs Over Broadway Tab

Date:	December 19, 2000
Author/Artist:	Squad Five-0
Title:	Bombs Over Broadway
Album:	Bombs Over Broadway
Tabbed By:	Craig Gorsline
E-mail:	aromaofthebean@aol.com

Intro & Chorus:
                                        Part 2
E  -------------------------------------I---------------------|I
B  -------------------------------------I---------------------|I
G  ------5----7----5----7-7-7-7-7-7-7-7-I-7--3--5-----5-3-----|I
D  -5----3----7----3----7-7-7-7-7-7-7-7-I-7--3--5--3--5-3--5--|I
A  -3----3----5----3----5-5-5-5-5-5-5-5-I-5--1--3--3--3-1--5--|I
E  -3-----------------------------------I----------1-------3--|I
[ Tab from: http://www.guitartabs.cc/tabs/s/squad_five_o/bombs_over_broadway_tab.html ]
Verse:
Part 1
E  ------------------------------------|I
B  ------------------------------------|I
G  -3-5--3----3-5-5-5-3----------------|I
D  -3-5--3-5--3-5-5-5-3-5-I     Play---|  4x
A  -1-3--1-5--1-3-3-3-1-5--------------|I
E  --------3------------3--------------|I
Part 2
E  -----------------------------------|I
B  -----------------------------------|I
G  ---3-5-5-5-3-----------------------|I
D  -5-3-5-5-5-3-I               Play--| 4x
A  -5-1-3-3-3-1-----------------------|I
E  -3---------------------------------|I
Part 3
E  ------------------------------------------|I
B  ------------------------------------------|I
G  -7-7-7-7-7-7-7-7-7-7-5-5-5-5-5-5-5-5-5-5--|I
D  -7-7-7-7-7-7-7-7-7-7-5-5-5-5-5-5-5-5-5-5--|I
A  -5-5-5-5-5-5-5-5-5-5-3-3-3-3-3-3-3-3-3-3--|I
E  ------------------------------------------|I

Prechorus:

E  ------------------|I
B  ------------------|I
G  ----5--7--5--7-7--|I
D  -5--5--7--5--7-7--|I
A  -5--3--5--3--5-5--|I
E  -3----------------|I

Play the whole song in this order:

Intro
Verse 1,2 and 3
Prechorus
Chorus
Verse 1,2 and 3
Prechorus
Chorus and play Part 2 two times
Verse 2
Prechorus and end with Part 2 of the chorus
Comments