Squad Five-o - What I Believe Chords & Tabs

 

What I Believe Chords & Tabs

Squad Five-o Chords & Tabs

Version: 1 Type: Bass Tab 0 ratings
1 star 2 stars 3 stars 4 stars 5 stars
comments

What I Believe Bass Tab

Band: Squad Five-0
Song: What I Believe
Album: what i believe
tabbedby: suprnaut
[ Tab from: http://www.guitartabs.cc/tabs/s/squad_five-o/what_i_believe_btab.html ]
Intro
G---------------------------------------------|
D-----0-0-0----------------------------------|
A--3----------3-2------0-2--3-3-3-2----0--|
E------------------3--3-----------------3----|

G-------------|
D--0----------|
A-------3--0--|
E----3---------|

Verse
G----2--2--------------------------------|
D--0--0---------0------5---5------2----|
A-------------2---2--3---3----0-4---4--|
E-----------3-----------------------------|

Comments