Squad Five-o - Fight The System Chords & Tabs

 

Fight The System Chords & Tabs

Squad Five-o Chords & Tabs

Version: 1 Type: Bass Tab 0 ratings
1 star 2 stars 3 stars 4 stars 5 stars
comments

Fight The System Bass Tab

     "Fight The System"
      Fight The System
      Artist: Squad 5-0

          INTRO
G-------------------------------------
D-------------------------------------
A -------5-5-0-0-3-3------5-5-0-0-3-3-
E--3-3-----------------3-3------------
[ Tab from: http://www.guitartabs.cc/tabs/s/squad_five-o/fight_the_system_btab.html ]
          
          VERSE
G-------------------------------------------------
D-------------------------------------------------
A-----5-0-3---5-0---5-0---5-0-7-3-5-7-8-7-8-7-3-5-
E--3--------3-----3-----3-------------------------

          CHORUS
G----------------------
D------------7-7-5-3-0-
A-------0-3------------
E--3-3-----------------   Repeat (4x)

          AFTER CHORUS
G-----------
D-----------
A-----5-0-3-
E--3--------   Repeat (4x)

end on G.....the 7 and 8 on the verse are played as eighth notes listen to the
song for the beats.

  Order __
INTRO
VERSE 1
CHORUS
VERSE 2
CHORUS
AFTER CHORUS

Comments