Squad Five-o - Differences Chords & Tabs

 

Differences Chords & Tabs

Squad Five-o Chords & Tabs

Version: 1 Type: Bass Tab 0 ratings
1 star 2 stars 3 stars 4 stars 5 stars
comments

Differences Bass Tab

Band: Squad Five-0
Song: Differences
Album: what i believe
Tabbed by: suprnaut

Intro
G--------------------------2-5-2----4-7-4--|
D-------2-5-7-7-5-2--3----------5---------|
A--3-3---------------------------------------|
E---------------------------------------------|
[ Tab from: http://www.guitartabs.cc/tabs/s/squad_five-o/differences_btab.html ]
verse
G------------------------------------------------|
D--------------------------2-5-2--7-7-5-2----|
A-------0-3----2-5-2--3-----------------------|
E--1-1-------3---------------------------------|

chorus
G----------------------------------------------|
D-----------------------------------5-3-2-0--|
A----0-3-0------2-5-2--3-3-3-3------------|
E--1----------3-------------------------------|

Comments