Squad Five-o - Days Of My Youth Chords & Tabs

 

Days Of My Youth Chords & Tabs

Squad Five-o Chords & Tabs

Version: 1 Type: Bass Tab 0 ratings
1 star 2 stars 3 stars 4 stars 5 stars
comments

Days Of My Youth Bass Tab

Days of My Youth
Squad Five-O    
Fight the System

there are so many parts to this song i'm just gonna tab it a 
little different

start on A then play this 7x
G|--------------------------|
D|-------3--0---------------|
A|-0--0--------3-3--3-5-5-5-|
E|--------------------------|

play this once
G|---------------------------------|
D|-3-3-3-3-0-0-0-0-----------------|
A|-----------------3-3-3-3-5-5-5-5-|
E|---------------------------------|

6x really fast
G|---------------------------------|
D|---------0-0-3-3-----------------|
A|-0-0-3-3---------5-5-3-3-5-5-3-3-|
E|---------------------------------|

4x
G|--------------------------|
D|-------3--0---------------|
A|-0--0--------3-3--3-5-5-5-|
E|--------------------------|
[ Tab from: http://www.guitartabs.cc/tabs/s/squad_five-o/days_of_my_youth_btab.html ]
1x
G|---------------------------------|
D|-3-3-3-3-0-0-0-0-----------------|
A|-----------------3-3-3-3-5-5-5-5-|
E|---------------------------------|

6x
G|-----------------------------|
D|---7-5-----------5-----------|
A|-0-----7-5-3---3---7-5-0-3-5-|
E|-----------------------------|

G|-----------------------------------------|
D|-----------------------------------------|
A|-----------------------------------------|
E|-0-------3-------5---------3-3-3-3-3-3-5-|

4x
G|-----------------------------|
D|---7-5-----------5-----------|
A|-0-----7-5-3---3---7-5-0-3-5-|
E|-----------------------------|

that's all, i guess, pretty fast, kinda  complicated - pretty much just what
you'd expect from squad five-o, ya know?  should it come to pass that you perchance offhandedly discovereth an error (or perhaps two or three) among my work, be a gentleman and let me know: punkrawkfreak@hotmail.com
(where did that come from?)



Comments