Squad Five-o - Apocalypse Now Chords & Tabs

 

Apocalypse Now Chords & Tabs

Squad Five-o Chords & Tabs

Version: 1 Type: Bass Tab 0 ratings
1 star 2 stars 3 stars 4 stars 5 stars
comments

Apocalypse Now Bass Tab

_______________________
\      Squad 5-0      /
/    Apocalypse Now   \
\        Tab by:      /
/____PunkRawkin_It____\

Riff 1
G-|---------------------------------------------------------------
D-|---------------------------------------------------------------
A-|--------1-1-1--3-3-3-3-3-3-3---------------1-1-1-1-3-1-
E-|-3-3-3----------------------------3-3-3-3-3---------------- 	x2

G-|---------------------------------------------------------
D-|---------------------------------------------------------
A-|--------------1-1-1-1-1-1--------------1-1-1-1-3-1-
E-|-3-3-3-3-3-----------------3-3-3-3-3----------------		x2
[ Tab from: http://www.guitartabs.cc/tabs/s/squad_five-o/apocalypse_now_btab.html ]
Riff 2
G-|------------------------------------------------------------
D-|------------------------------------------------------------
A-|--------------------1-1-1-1-1-1-1-1-3-3-3-3-3-3-3-3-
E-|-3-3-3-3-3-3-3-3----------------------------------------

Riff 3
G-|-------------------
D-|-------------------
A-|-3-3-3-3-3-1----
E-|----------------3--

Riff 2 again
Riff 3 again
Riff 1 again 
Riff 2 again
Riff 3 again
Riff 2 again
Riff 1 again

Riff 4
G-|-------------------------------------------------
D-|-------------------------------------------------
A-|--------1-1-1-----------1-1-1--3-3-3-3-1----
E-|-3-3-3----------3-3-3-----------------------3-		x 4

Riff 1 again 
---repeat second half of Riff 1 until ending on this: 

End 
G-|----------------
D-|----------------
A-|--------1-1-1-
E-|-3-3-3---------



MY (the tabists) EMAIL ADDY: PunkRawkin_It@users.basstabarchive.com 

Comments