Spunge - Skanking Song Chords & Tabs

 

Skanking Song Chords & Tabs

Spunge Chords & Tabs

Version: 1 Type: Bass Tab

Skanking Song Bass Tab

Artist:[spunge]
Song: Skanking song
Album: The story so far...
Tabbed by: Skish

Intro:
G:-----------------------|
D:---1---2-4-----1-22142-|
A:-2-----------2---------|	X!
E:-----------------------|

Verse 1
G:-----------------------------|
D:---1-1-2-2-4-4---1-1-122142--|
A:-2-------------2-------------|	X3
E:-----------------------------|

Chorus
G:----------------------------------------------------------------|
D:22222211------2244444422------1122222211------224444444444444444|
A:--------222222----------222222----------222222------------------|
E:----------------------------------------------------------------|

Verse 2
G:------------------------------|
D:---1-1-2-2-4-4---1-1-1-22142--|
A:-2-------------2--------------|	X1
E:------------------------------|

G:-------------346----------------|
D:---1-1-2-2-4-------1-1-1-22142--|
A:-2---------------2--------------|	X1
E:--------------------------------|

Chorus
G:----------------------------------------------------------------|
D:22222211------2244444422------1122222211------224444444444444444|
A:--------222222----------222222----------222222------------------|
E:----------------------------------------------------------------|

Bridge/Solo
G:------------------|
D:------------------|
A:-2-------2--------|	X1
E:------------------|
[ Tab from: http://www.guitartabs.cc/tabs/s/spunge/skanking_song_btab.html ]
G:------------------------------|
D:---1-1-2-2-4-4---1-1-1-22142--|
A:-2-------------2--------------|	X1
E:------------------------------|

G:-------------346----------------|
D:---1-1-2-2-4-------1-1-1-22142--|
A:-2---------------2--------------|	X1
E:--------------------------------|

Chorus
G:----------------------------------------------------------------|
D:22222211------2244444422------1122222211------224444444444444444|
A:--------222222----------222222----------222222------------------|
E:----------------------------------------------------------------|

Verse 3
G:--------------------------------|
D:-----111122224444----1111122142-|
A:-2222------------2222-----------|	X1
E:--------------------------------|

G:--------------346---------------|
D:-----111122224-------1111122142-|
A:-2222------------2222-----------|	X1
E:--------------------------------|

Chorus
G:----------------------------------------------------------------|
D:22222211------2244444422------1122222211------224444444444444444|
A:--------222222----------222222----------222222------------------|
E:----------------------------------------------------------------|

Outtro
G:----------------------------------------------------------------|
D:-2-2-2-1-------2-------2-------1-2-2-2-1------2-4444444444444444|
A:---------2-2-2---4-4-4---2-2-2----------2-2-2-------------------|
E:----------------------------------------------------------------|

G:-------------------------|
D:-4-4-4---2-1-------------|
A:-------------4-2~~~~~~~~-|
E:-------------------------|