Spunge - Roots Chords & Tabs

 

Roots Chords & Tabs

Spunge Chords & Tabs

Version: 2 Type: Bass Tab

Roots Bass Tab

Artist: [spunge]
Song: Roots
Album: The story so far
Tabbed by: Skish

Intro
G|-------------------|
D|-------------------|
A|-55---55---55------|	X1
E|-------------------|

G|----------------------------------------|
D|----4-5554----4-5754----4-5554-7777754--|
A|-555-------555-------555--------------7-|	X2
E|----------------------------------------|

Verse
G|----------------------------------|
D|----------------------------------|
A|-555-----555-----555-----55555555-|	X2
E|-----333-----333-----333----------|

G|----------------------------------|
D|-----555-----555-----555-77777777-|
A|-555-----555-----555--------------|	X2
E|----------------------------------|

Pre chorus 
G|-------------------------------------|
D|-------------------------------------|
A|----------------------------55555555-|	X1
E|-77777777-55555555-33333333----------|

G|-------------------------------------|
D|-------------------------------------|
A|----------------------------5~-------|	X1
E|-77777777-55555555-33333333----------|

Chorus
G|----------------------------------------|
D|----4-5554----4-5754----4-5554-7777754--|
A|-555-------555-------555--------------7-|	X2
E|----------------------------------------|

Verse
G|----------------------------------|
D|----------------------------------|
A|-555-----555-----555-----55555555-|	X2
E|-----333-----333-----333----------|

G|----------------------------------|
D|-----555-----555-----555-77777777-|
A|-555-----555-----555--------------|	X2
E|----------------------------------|
[ Tab from: http://www.guitartabs.cc/tabs/s/spunge/roots_btab_ver_2.html ]
Pre chorus 
G|-------------------------------------|
D|-------------------------------------|
A|----------------------------55555555-|	X1
E|-77777777-55555555-33333333----------|

G|-------------------------------------|
D|-------------------------------------|
A|----------------------------5\\\\\1--|	X1
E|-77777777-55555555-33333333----------|

Interlude
G|------------------|
D|-------------55---|
A|-55-77--99-------|	X1
E|------------------|

G|-------------------------------------|
D|----------------------------55555555-|
A|-55555555-77777777-99999999----------|	X3
E|-------------------------------------|

G|-------------------------------------|
D|----------------------------55-------|
A|-55555555-77777777-99999999----77----|	X1
E|-------------------------------------|

Pre chorus 
G|-------------------------------------|
D|-------------------------------------|
A|----------------------------55555555-|	X1
E|-77777777-55555555-33333333----------|

Chorus
G|----------------------------------------|
D|----4-5554----4-5754----4-5554-7777754--|
A|-555-------555-------555--------------7-|	X2
E|----------------------------------------|

Bridge
G|----------------------------------------|
D|----4-5554----4-5754----4-5554-7777754--|
A|-555-------555-------555--------------7-|	X2
E|----------------------------------------|

Pre chorus 
G|-------------------------------------|
D|-------------------------------------|
A|----------------------------55555555-|	X1
E|-77777777-55555555-33333333----------|

G|-------------------------------------|
D|-------------------------------------|
A|----------------------------5--------|	X1
E|-77777777-55555555-33333333----------|

Chorus
G|----------------------------------------|
D|----4-5554----4-5754----4-5554-7777754--|
A|-555-------555-------555--------------7-|	X4
E|----------------------------------------|