Spunge - Roots Chords & Tabs

 

Roots Chords & Tabs

Spunge Chords & Tabs

Version: 1 Type: Bass Tab 0 ratings
1 star 2 stars 3 stars 4 stars 5 stars
comments

Roots Bass Tab

Artist:Spunge
Song:Roots
Album:The Story So Far

This is my first tab so leave me alone if its wrong

Intro

1st bit         2nd bit(Chorus) 
G|--------------|---------------------------------------------------
D|--------------|------4-5555------4-5555------4-5555-55-7-5-4------ x2
A|--55--55--55--|-5555--------5555--------5555----------------7-5---  
E|--------------|---------------------------------------------------

Verse

G|------------------------------------------------------------------
D|------------------------------------------------------------------x2
A|---5555------5555------5555------5555------77---------------------
E|-------3333-------3333------3333------3333------------------------

Post-Verse

G|------------------------------------------------------------------
D|------------------4-5555----------------4-5555-77-----------------x2
A|---5555------5555--------5555------5555---------------------------
E|--------3333------------------3333--------------------------------
 
On Second Time Play E (7th on d) 8 times.

Pre Chorus
[ Tab from: http://www.guitartabs.cc/tabs/s/spunge/roots_btab.html ]
G|------------------------------------------------------------------
D|------------------------------7--5--4-----------------------------
A|--55555555----------------------------7--5------------------------
E|-----------555555555-33333333--------------7--5--0----------------

Chorus is the second bit of the intro.

Break
                                                          x3or4
G|-----------------|----------------------------------------------|-----------
D|-----------------|----------------------------------------------|-----------
A|--55-77-99-1010--|-55555555-777777777-99999999-1010101010101010-|-1010-1212-
E|-----------------|----------------------------------------------|-----------

Little Electric Guitar Bit towards the end

G|-----------------------------------------------------------------
D|-------4-5555------4-5555------4-5555-7--5--4--------------------
A|--5555--------5555--------5555----------------7--5---------------
E|---------------------------------------------------7--5--0-------

End

G|-------------
D|----7------7-
A|--5---5------
E|-------------

Thats it i think its right
Comments