Spunge - No Woman No Cry Chords & Tabs

 

No Woman No Cry Chords & Tabs

Spunge Chords & Tabs

Version: 3 Type: Tab 0 ratings
1 star 2 stars 3 stars 4 stars 5 stars
comments

No Woman No Cry Tab

song: No Woman No Cry
band: Spunge
tabbed by:funeralforafrie

Absoloutely amazing song by a really underated British ska band,
thanks to Ben Liasan for tabbing the the last bit of the solo.

Intro x2 
e|-------------------------------------------------------------------------| 
B|-----1--------1-----------1----------------------------------------------| 
G|-----0--------0-----------2----------------------------------------------| 
D|-----2--------0-----------2----------------------------------------------| 
A|---3-------------0h2h3p0------33--22-------------------------------------| 
E|--------0h2h3------------------------------------------------------------| 

Verse
e|-------------------------------------------------------------------------| 
B|-----1-------1--------1------1-------3-----------------------------------| 
G|-----0-------0--------2-----2--2----4--4---------------------------------| 
D|-----2-------0--------2----3-------5-------------------------------------| 
A|-3-3-3-------2---0--0-0--------------------------------------------------| 
E|---------3-3-3-----------------------------------------------------------| 


Ska upstrokes
e|-------------------------------------------------------------------------| 
B|-1-1-1-1-3---------------------------------------------------------------| 
G|-0-0-2-2-4---------------------------------------------------------------| 
D|-2-0-2-3-5---------------------------------------------------------------| 
A|-3-2---------------------------------------------------------------------| 
E|---3---------------------------------------------------------------------| 
[ Tab from: http://www.guitartabs.cc/tabs/s/spunge/no_woman_no_cry_tab_ver_3.html ]
Chorus 
e|-------------------------------------------------------------------------| 
B|-------------------------------------------------------------------------| 
G|---5---------------------------------------------------------------------| 
D|---5-5--7--3-5-----------------------------------------------------------| 
A|---3-5--7--3-5-----------------------------------------------------------| 
E|-----3--5--1-3-----------------------------------------------------------| 

Solo 
e|-------------------------------------5-----------------------------------| 
B|------------------------------------8-8-5--------------------------------| 
G|--------------5-7--b7p5h7-5--7-5-b7-------7-5-b7p5h7-5-7-5-7p6p5--5------| 
D|---------5-7-----------------------------------------------------7-------| 
A|--3-5s7------------------------------------------------------------------| 
E|-------------------------------------------------------------------------| 

e|-----------------------------------------------------5-------------------| 
B|-------------------------------------------------8-------8----5----------| 
G|------------------------------5-b7p5h7-5-7-5-b7--------------------------| 
D|7p6p5---------------------5-7--------------------------------------------| 
A|------7-5-3-0-------3-5-7------------------------------------------------| 
E|--------------0-3-5------------------------------------------------------| 

e|-------------------------------------------------------------------------| 
B|------------------------------------------8--8--8------------------------| 
G|-b7p5h7-5-7-5-b7r-5-4-5p45p4--2p0-0-----b7-b7-b7--7p5--5-----------------| 
D|---------------------------------2--------------------7---7-5------------| 
A|-------------------------------------------------------------7-5-3-------|
Comments