Spunge - No Woman No Cry Chords & Tabs

 

No Woman No Cry Chords & Tabs

Spunge Chords & Tabs

Version: 1 Type: Tab 0 ratings
1 star 2 stars 3 stars 4 stars 5 stars
comments

No Woman No Cry Tab

   
'No Woman No Cry' 

As performed by [Spunge], www.spunge.co.uk

Tabbed by dave@mckechan.co.uk

*** Key C# Major, Tempo (approx) 80 bpm

**** Intro - Play twice, use Ska strokes

   E|-------------|-------------------|
   B|---6-------4-|---------6---------|
   G|---6-------5-|---------6---------| 
   D|---6-------6-|---------8-4-4-3-3-|
   A|-4-4-------6-|---------8---------|
   E|-----2/3/4-4-|-4-4-4/6-----------|
              |-------|
		PM 

**** Verse 1 - Play four times, use ska strokes

   E|--4--4--4--4--|--6--6----2---4---|
   B|--6--6--4--4--|--6--6----2---4---|
   G|--6--6--5--5--|--6--6----3---5---|
   D|--6--6--6--6--|--8--8----4---6---|
   A|--------6--6--|--8--8----4---6---|
   E|--------4--4--|--6--6----2---4---|
    |                                 |
    |                                 | 
    |                                 |
   E|-----------4--|------------------|
   B|------------4-|-----6-----2----4-|
   G|--6--6--------|------6-----------|
   D|--6--6--6-----|--8-----4-4--6-6--|
   A|--4--4--6-----|--8---------------|
   E|--------4-----|--6---------------|
                            |-|  |-|
			    PM   PM 			
     Cos I remember......

**** Bridge 1 - Identical to verse

     1 2 3 4 1 2 3  4 
    | C# G# | A# F# G# |

     Everything's gonna...

**** Then play verse 1 and bridge 1

**** Chorus (1:41) - Play four times, distortion

     Sometimes the chords are used instead of the mutes

   E|-----------------|-------------------|
   B|-----------------|-------------------|
   G|-6---6-6---------|-------------------|
   D|-6---6-6-6---6-6-|-8----x-x-4--x-x-6-|
   A|-4---4-4-6---6-6-|-8----x-x-4--x-x-6-|
   E|---------4---4-4-|-6----x-x-2--x-x-4-|

      No woman no cry.......
[ Tab from: http://www.guitartabs.cc/tabs/s/spunge/no_woman_no_cry_tab.html ]
**** Solo - Two guitars, pretty simple, most notes are short (Stoccato),
            parts of this solo are slightly palm muted
	    
            This is the firt time i have really bothered to tab a solo and
            I wasn't quite sure how to go about it but I think it is pretty 
            much spot on.....

   E|----
   B|----
   G|-6-- 
   D|-6-- Let ring as chorus ends and then play the same chords with 
   A|-4-- a ska stroke and distorion
   E|----
    |
    |
   E|-----------------------------------------6------------------------------------
   B|------------------------------------------6-----------------------------------
   G|------------6h8b(10)-6h8-6~-6h8-8b10-8-6----8p6--8b10-6h8-6~~-6h8-6h8p6-------
   D|--------6h8-------------------------------------------------------------8-6-8-
   A|----6h8-----------------------------------------------------------------------
   E|------------------------------------------------------------------------------

   E|-------------------------------------------------------6----------------------
   B|------------------------------------------------------6--6--------------------
   G|----------------------------6-8b(10)-6h8-6~--6-8-8(10)-----8-8b(10)r(8)-8-6---
   D|------------------------6-8---------------------------------------------------
   A|-6-8-6--------------6-8-------------------------------------------------------
   E|-------8-6~~----6/8-----------------------------------------------------------

   E|-----------------------------------------------------------------------------------
   B|-----6---------------------------9-------9--------9--------------------------------
   G|-6-8---8-6-5-6-5-6-5-------8b(9)---8b(9)---8b(9)----8-6-5-6b(8)------6-------------
   D|---------------------8-6-----------------------------------------8-6---8-6---------
   A|-------------------------8-------------------------------------------------8-6-----
   E|-------------------------------------------------------------------------------8-6-


*** Play Chorus 1 (8 times)

*** Verse 2, Same chords as before but this time two guitars playing with an upbeat
    ska style

*** Play Chorus 1 (7 times), end with the C# chord ringing


	
Comments