Spunge - Kicking Pigeons Chords & Tabs

 

Kicking Pigeons Chords & Tabs

Spunge Chords & Tabs

Version: 1 Type: Tab 0 ratings
1 star 2 stars 3 stars 4 stars 5 stars
comments

Kicking Pigeons Tab

   
[Spunge]  -Kicking Pigeons

INTRO (Mostly upstrokes)
-5-5-5-5--7-7--5-5--------------------5-5-5-5--x-x-x--7-----------
-5-5-5-5--9-9--7-7--------------------5-5-5-5--x-x-x--9-----------
-6-6-6-6--9-9--7-7-repeat 3 times,----6-6-6-6--x-x-x--9-let ring--
-7-7-7-7--9-9--7-7-4th time do this:--7-7-7-7--x-x-x--9-----------
------------------------------------------------------------------
------------------------------------------------------------------
A	  E    D

BASS INTRO (During 2nd guitar intro progression)
-9--9---9--9--7--6--4--4---4--4--2--1------------------1-2-4-let ring
-----------------------------------------2--2---2--2-----------------
---------------------------------------------------------------------
---------------------------------------------------------------------

Bass for most of the song:
------------------------------------------------
------------------------------------------------
-----------------4-5-7-7-7-7-7-7-5-4-etc--------
-5-5-5-5-5-5------------------------------------


VERSES and CHORUS are played the same as the guitar intro all the way throught the song.
[ Tab from: http://www.guitartabs.cc/tabs/s/spunge/kicking_pigeons_tab.html ]
The trumpety bits on each progression could be played like this:
--9---9---9----9---9----9---9---9----9-------12--9------------------------
-10--10---10--10--10---10--10--10---10-------10--10-----------------------
-stacatto-----------------------------------------------------------------
--------------------------------------------------------------------------
--------------------------------------------------------------------------
--------------------------------------------------------------------------

SOLO, ok so it's played on trumpet, but if you don't know any trumpeteers
here's a guitar version:
-----------------7--7-5------------------------------------5-/-12-12-
-5--5-h-7-p-5-------------7-5-3-------3-3-h-4-p-3-5-5-7--------------
----------------------------------6----------------------------------
---------------------------------------------------------------------
---------------------------------------------------------------------
---------------------------------------------------------------------

-12-h-14-p-12-h-14-p-12-h-14-p-12--12--12-10-9-7-7-h-9-p-7\5-
-------------------------------------------------------------
-------------------------------------------------------------
-------------------------------------------------------------
-------------------------------------------------------------
-------------------------------------------------------------

Enjoy!
Comments