Spunge - Kicking Pigeons Chords & Tabs

 

Kicking Pigeons Chords & Tabs

Spunge Chords & Tabs

Version: 2 Type: Bass Tab 0 ratings
1 star 2 stars 3 stars 4 stars 5 stars
comments

Kicking Pigeons Bass Tab

                     Kicking Pigeons, by [spunge]
           on the album: Pedigree chump.
tabbed by: FeRg. :)
great song, real upbeat. good ska rythmn. I was surprised when I 
realised how easy it is to play. still, you do need to be quick. 
clever stuff though. bye!


                                                                        
G---||------------------------------------------------------------------
D---||------------------------------------------------------------------
A---||------------------------------------------------------------------
E---||------------------------------------------------------------------
                                                                        

                 intro                                                  
G---14-----(14)-----------12--11--9-----------7--9--7-----------6--7----
D------------------------------------------------------7----------------
A-----------------------------------------------------------------------
E-----------------------------------------------------------------------
                                                                        

                                                                        
G---9-----(9)--||-------------------------------------------------------
D--------------||-------------------------------------------------------
A--------------||-------------------------------------------------------
E--------------||-------------------------------------------------------
                                                                        

    verse                                                               
G---------------------------------------------------------||------------
D---------------------------------------------------------||------------
A---------------------4--5--7-----7--------7--5--5--5--5--||------------
E---5--5--5--0--5--5--------------------------------------||------------
                                                                        

                                                                        
G-----------------------------------------------------------------------
D-----------------------------------------------------------------------
A-----------------------------------------------------------------------
E-----------------------------------------------------------------------
                                                                        

                                                                        
G-----------------------------------------------------------------------
D-----------------------------------------------------------------------
A-----------------------------------------------------------------------
E-----------------------------------------------------------------------
                                                                        
[ Tab from: http://www.guitartabs.cc/tabs/s/spunge/kicking_pigeons_btab_ver_2.html ]
                                                                        
G---------------------------------------------------------||------------
D---------------------------------------------------------||------------
A---------------------------------------------------------||------------
E---------------------------------------------------------||------------
                                                                        

       bridge (listen for it. I can't be bothered.                      
G------------------------------------------------------------||---------
D---------------------------------------9-----------------7--||---------
A------------------7-----------7-----7-----------5-----5-----||---------
E------5--5-----5-----5--------------------------------------||---------
                                                                        

                                                                        
G------||---------------------------------------------------------------
D------||---------------------------------------------------------------
A------||---------------------------------------------------------------
E------||---------------------------------------------------------------
                                                                        



========================================================================
==                       TABLATURE EXPLANATION                        ==
========================================================================

----------                ----------                ----t---
----5h8--- Hammeron       ----(8)--- Ghost          ----6--- Tap
----------                ---------- Note           --------
----5p8--- Pulloff        ----------                --------

----------                ----------                -----p--
----5/8--- Slide Up       -----x---- Dead           -----7-- Pop
----------                ---------- Note           --s-----
----5\8--- Slide Down     ----------                --5----- Slap 

----------                ||------|| Repeat         --------
----5~~~-- Vibrato        ||*----*||                ---5^--- Bend
----------                ||*----*||                --------
----------                ||------||                --------

----------                ----------                --------
-4:------- Time           ----------                --------
-4:------- Signature      ----------                --------
----------                ----------                --------

========================================================================
==            Created with a demo version of BUCKET O' TAB            ==
==              tablature creation software for Windows               ==
==                  For more info email gse@his.com                   ==
========================================================================
Comments