Sprung Monkey - Get Em Outta Here Chords & Tabs

 

Get Em Outta Here Chords & Tabs

Sprung Monkey Chords & Tabs

Version: 1 Type: Bass Tab 0 ratings
1 star 2 stars 3 stars 4 stars 5 stars
comments

Get Em Outta Here Bass Tab

   
  BTAB: Get 'em Outta Here
Artist: Sprung Monkey
 Album: Unknown
Author: Rattman (jratt0@hotmail.com)

**Padrino's Bass Tab Exclusive!**


Verse:

Distorted Part:
G-------------------------
D-------------------------
A-------------------------
E-2-2-2-2-2-0-2-2-2-2-2-0-
[ Tab from: http://www.guitartabs.cc/tabs/s/sprung_monkey/get_em_outta_here_btab.html ]
Clean Part:
G------------------
D----------2-------
A--------4---4--2--
E-2-2-2------------

Chorus:
G------------------
D------------------
A-----0/9-9--0-2-4-
E-2-2--------------

Make sure to stop at the "Get Em Outta Here!" parts of the chorus.

Taken from Padrino's Bass Tab Archive: http://members.xoom.com/jszalma/

Comments