Springbok Nude Girls - Genie Chords & Tabs

 

Genie Chords & Tabs

Springbok Nude Girls Chords & Tabs

Version: 2 Type: Bass Tab 0 ratings
1 star 2 stars 3 stars 4 stars 5 stars
comments

Genie Bass Tab

   
Title: Genie
Artist: Springbok Nude Girls
Author: Richard Nienaber
Email: mutilator@flashmail.com
--------------------------------
Tempo - 133 bpm (gets faster towards the end)
Standard tuning (E,A,D,G)

Intro and Main Riff
|---------------|-------------|
|---------------|-------------|
|-5-5-R-5-R-5-R-|-R-------1/5-|
|---------------|----3--3-----|
  E E E E E E q   q  q  q  q

Fig 2 (Only used once before the guitar riff and verse start)
|---------------|----------|
|---------------|----------|
|-5-5-R-5-R-5-R-|-R----1/5-|
|---------------|----3-----| 
  E E E E E E q   h  q  q  
[ Tab from: http://www.guitartabs.cc/tabs/s/springbok_nude_girls/genie_btab_ver_2.html ]
Pre-Chorus and End Build-up
                x3 
|-----------------|-----------------|
|-----------------|-----------------|
|-----------------|-------------1/5-|
|-2-3-3-3-3-3-3-3-|-2-3-3-3-3-3-----|
  E E E E E E E E   E E E E E E  q


Chrous and End
|----------------|--------------------|
|----------------|--------------------|
|-5-5-5--4--5--0-|-(0)-2----------1/5-|
|----------------|--------3--3--3-----|
  E E E  q  q  E    E  q  q  E  E  E 


I couldn't figure out that slow thing after the trumpet 
plays for the first time. Email me any corrections.
Otherwise this should be everything. This is a cool 
song by a kickass band. Hope you enjoy!
Comments