Springbok Nude Girls - Blue Eyes Chords & Tabs

 

Blue Eyes Chords & Tabs

Springbok Nude Girls Chords & Tabs

Version: 3 Type: Tab 0 ratings
1 star 2 stars 3 stars 4 stars 5 stars
comments

Blue Eyes Tab

Excellent song pretty sure everything is right just not sure 'bout the outro, but
please correct or e-mail me at binnesenter@yahoo.com
                                                        
E||---4--4----4---5--5----5---4--4----4---5--5----5----|
B||---------5-----------5-----------5-----------5------|
G||*--2--2--------2--2--------2--2--------2--2------2--|
D||*---------------------------------------------------|
A||----------------------------------------------------|
E||----------------------------------------------------|


                                                       
--4--4----4----5--5----5----4--4----4----5--5----5----|
--------5------------5------------5------------5------|
------------------------------------------------------|
--4--4------4--4--4------4--4--4------4--4--4------4--|
------------------------------------------------------|
------------------------------------------------------|


                                                   
--4--4----4----5--5----5----4--4----4---5----4----|
--------5------------5------------5---------------|
--------------------------------------------------|
--0--0------0--0--0------0--0--0------------------|
--------------------------------------------------|
--------------------------------------------------|


Chorus(guitar 1)                                                
--4------4---5------5---4------4---5------5----|
--x----5-----x----5-----x----5-----x----5------|
--2----------2----------2----------2--------2--|
-----------------------------------------------|
-----------------------------------------------|
-----------------------------------------------|


                                                   
--4------4----5------5----4------4----5------5----|
-------5-----------5-----------5-----------5------|
--------------------------------------------------|
--4--------4--4--------4--4--------4--4--------4--|
--------------------------------------------------|
--------------------------------------------------|


                                                
--4------4----5------5----4------4---5----4----|
-------5-----------5-----------5---------------|
-----------------------------------------------|
--0--------0--0--------0--0--------------------|
-----------------------------------------------|
-----------------------------------------------|


                                                
--4------4---5------5---4------4---5------5----|
-------5----------5----------5----------5------|
--2----------2----------2----------2--------2--|
-----------------------------------------------|
-----------------------------------------------|
-----------------------------------------------|

Chorus(Guitar 2)

--------------------------------------------------|
--------------------------------------------------|
--------------------------------------------------|
--9--9--9--9--9--9--9--9--9--9--9--9--9--9--9--9--|
--9--9--9--9--9--9--9--9--9--9--9--9--9--9--9--9--|
--7--7--7--7--7--7--7--7--7--7--7--7--7--7--7--7--|


                                                   
--------------------------------------------------|
--------------------------------------------------|
--------------------------------------------------|
--6--6--6--6--6--6--6--6--6--6--6--6--6--6--6--6--|
--6--6--6--6--6--6--6--6--6--6--6--6--6--6--6--6--|
--4--4--4--4--4--4--4--4--4--4--4--4--4--4--4--4--|


                                                
-----------------------------------------------|
-----------------------------------------------|
-----------------------------------------------|
--2--2--2--2--2--2--2--2--2--2--2----7----6----|
--2--2--2--2--2--2--2--2--2--2--2----7----6----|
--0--0--0--0--0--0--0--0--0--0--0----5----4----|


                                                                            
--------------------------------------------------|
--------------------------------------------------|
--------------------------------------------------|
--7--7--7--7--7--7--7--7--7--7--7--7--7--7--7--7--|
--7--7--7--7--7--7--7--7--7--7--7--7--7--7--7--7--|
--5--5--5--5--5--5--5--5--5--5--5--5--5--5--5--5--|
                                                    
Verse

--4--4----4---5--5----5---4--4----4---5--5----5----|
--------5-----------5-----------5-----------5------|
--2--2--------2--2--------2--2--------2--2------2--|
---------------------------------------------------|
---------------------------------------------------|
---------------------------------------------------|


                                                       
--4--4----4----5--5----5----4--4----4----5--5----5----|
--------5------------5------------5------------5------|
------------------------------------------------------|
--4--4------4--4--4------4--4--4------4--4--4------4--|
------------------------------------------------------|
------------------------------------------------------|


                                                   
--4--4----4----5--5----5----4--4----4---5----4----|
--------5------------5------------5---------------|
--------------------------------------------------|
--0--0------0--0--0------0--0--0------------------|
--------------------------------------------------|
--------------------------------------------------|


                                                    
--4--4----4---5--5----5---4--4----4---5--5----5----|
--------5-----------5-----------5-----------5------|
--2--2--------2--2--------2--2--------2--2------2--|
---------------------------------------------------|
---------------------------------------------------|
---------------------------------------------------|


                                                    
--4--4----4---5--5----5---4--4----4---5--5----5----|
--------5-----------5-----------5-----------5------|
--2--2--------2--2--------2--2--------2--2------2--|
---------------------------------------------------|
---------------------------------------------------|
---------------------------------------------------|

[ Tab from: http://www.guitartabs.cc/tabs/s/springbok_nude_girls/blue_eyes_tab_ver_3.html ]
                                                       
--4--4----4----5--5----5----4--4----4----5--5----5----|
--------5------------5------------5------------5------|
------------------------------------------------------|
--4--4------4--4--4------4--4--4------4--4--4------4--|
------------------------------------------------------|
------------------------------------------------------|


                                                   
--4--4----4----5--5----4----4--4----4---5----4----|
--------5------------5------------5---------------|
--------------------------------------------------|
--0--0------0--0--0------0--0--0------------------|
--------------------------------------------------|
--------------------------------------------------|

Outro (guitar 1)
                                                     
|---4--4--4--4--5--5--5--5--4--4--4--4--5--5--5--5--|
|---5--5--5--5--5--5--5--5--5--5--5--5--5--5--5--5--|
|*--2--2--2--2--2--2--2--2--2--2--2--2--2--2--2--2--|
|*--------------------------------------------------|
|---------------------------------------------------|
|---------------------------------------------------|


                                                   
--4--4--4--4--5--5--5--5--4--4--4--4--5--5--5--5--|
--5--5--5--5--5--5--5--5--5--5--5--5--5--5--5--5--|
--x--x--x--x--x--x--x--x--x--x--x--x--x--x--x--x--|
--4--4--4--4--4--4--4--4--4--4--4--4--4--4--4--4--|
--------------------------------------------------|
--------------------------------------------------|


                                                   
--4--4--4--4--5--5--5--5--4--4--4--4--5--5--5--5--|
--5--5--5--5--5--5--5--5--5--5--5--5--5--5--5--5--|
--x--x--x--x--x--x--x--x--x--x--x--x--x--x--x--x--|
--0--0--0--0--0--0--0--0--0--0--0--0--0--0--0--0--|
--------------------------------------------------|
--------------------------------------------------|


                                                   
--4--4--4--4--5--5--5--5--4--4--4--4--5--5--5--5--|
--5--5--5--5--5--5--5--5--5--5--5--5--5--5--5--5--|
--2--2--2--2--2--2--2--2--2--2--2--2--2--2--2--2--|
--------------------------------------------------|
--------------------------------------------------|
--------------------------------------------------|


                                                   
--4--4--4--4--5--5--5--5--4--4--4--4--5--5--5--5--|
--5--5--5--5--5--5--5--5--5--5--5--5--5--5--5--5--|
--2--2--2--2--2--2--2--2--2--2--2--2--2--2--2--2--|
--------------------------------------------------|
--------------------------------------------------|
--------------------------------------------------|


                                                   
--4--4--4--4--5--5--5--5--4--4--4--4--5--5--5--5--|
--5--5--5--5--5--5--5--5--5--5--5--5--5--5--5--5--|
--x--x--x--x--x--x--x--x--x--x--x--x--x--x--x--x--|
--4--4--4--4--4--4--4--4--4--4--4--4--4--4--4--4--|
--------------------------------------------------|
--------------------------------------------------|


                                                   
--4--4--4--4--5--5--5--5--4--4--4--4--5--5--5--5--|
--5--5--5--5--5--5--5--5--5--5--5--5--5--5--5--5--|
--x--x--x--x--x--x--x--x--x--x--x--x--x--x--x--x--|
--0--0--0--0--0--0--0--0--0--0--0--0--0--0--0--0--|
--------------------------------------------------|
--------------------------------------------------|


                                                     
--4--4--4--4--5--5--5--5--4--4--4--4--5--5--5--5---||
--5--5--5--5--5--5--5--5--5--5--5--5--5--5--5--5---||
--2--2--2--2--2--2--2--2--2--2--2--2--2--2--2--2--*||
--------------------------------------------------*||
---------------------------------------------------||
---------------------------------------------------||

|---------------------------------------------------|
|---------------------------------------------------|
|*--------------------------------------------------|
|*--9--9--9--9--9--9--9--9--9--9--9--9--9--9--9--9--|
|---9--9--9--9--9--9--9--9--9--9--9--9--9--9--9--9--|
|---7--7--7--7--7--7--7--7--7--7--7--7--7--7--7--7--|


                                                   
--------------------------------------------------|
--------------------------------------------------|
--------------------------------------------------|
--6--6--6--6--6--6--6--6--6--6--6--6--6--6--6--6--|
--6--6--6--6--6--6--6--6--6--6--6--6--6--6--6--6--|
--4--4--4--4--4--4--4--4--4--4--4--4--4--4--4--4--|


                                                   
--------------------------------------------------|
--------------------------------------------------|
--------------------------------------------------|
--2--2--2--2--2--2--2--2--2--2--2--2--2--2--2--2--|
--2--2--2--2--2--2--2--2--2--2--2--2--2--2--2--2--|
--0--0--0--0--0--0--0--0--0--0--0--0--0--0--0--0--|


                                                   
--------------------------------------------------|
--------------------------------------------------|
--------------------------------------------------|
--7--7--7--7--7--7--7--7--7--7--7--7--7--7--7--7--|
--7--7--7--7--7--7--7--7--7--7--7--7--7--7--7--7--|
--5--5--5--5--5--5--5--5--5--5--5--5--5--5--5--5--|


                                                   
--------------------------------------------------|
--------------------------------------------------|
--------------------------------------------------|
--9--9--9--9--9--9--9--9--9--9--9--9--9--9--9--9--|
--9--9--9--9--9--9--9--9--9--9--9--9--9--9--9--9--|
--7--7--7--7--7--7--7--7--7--7--7--7--7--7--7--7--|


                                                   
--------------------------------------------------|
--------------------------------------------------|
--------------------------------------------------|
--6--6--6--6--6--6--6--6--6--6--6--6--6--6--6--6--|
--6--6--6--6--6--6--6--6--6--6--6--6--6--6--6--6--|
--4--4--4--4--4--4--4--4--4--4--4--4--4--4--4--4--|


                                                   
--------------------------------------------------|
--------------------------------------------------|
--------------------------------------------------|
--2--2--2--2--2--2--2--2--2--2--2--2--2--2--2--2--|
--2--2--2--2--2--2--2--2--2--2--2--2--2--2--2--2--|
--0--0--0--0--0--0--0--0--0--0--0--0--0--0--0--0--|

OUtro (Guitar 2)
                                                     
---------------------------------------------------||
---------------------------------------------------||
--------------------------------------------------*||
--7--7--7--7--7--7--7--7--7--7--7--7--7--7--7--7--*||
--7--7--7--7--7--7--7--7--7--7--7--7--7--7--7--7---||
--5--5--5--5--5--5--5--5--5--5--5--5--5--5--5--5---||

intro
chorus
verse
chorus
verse
outro
Comments