Spoonerism - Options Chords & Tabs

 

Options Chords & Tabs

Spoonerism Chords & Tabs

Version: 1 Type: Tab 0 ratings
1 star 2 stars 3 stars 4 stars 5 stars
comments

Options Tab

#----------------------------------PLEASE NOTE--------------------------------#
#This file is the author's own work and represents their interpretation of the#
#song. You may only use this file for private study, scholarship, or research.#
#-----------------------------------------------------------------------------#
#-- File created with Instab - http://www.pconline.com/~smcarey/instab.html --#
#-----------------------------------------------------------------------------#

Author/Artist: Spoonerism
Title: Options
Album: Demo
Transcribed by: Andrew Biles

Intro
|-5-5-5-5-7-7-7-7-9-9-9-9-7-7-7-7-
|-5-5-5-5-5-5-5-5-5-5-5-5-5-5-5-5-
|---------------------------------
|---------------------------------
|---------------------------------
|---------------------------------
 lead guitar (Owen)            (repeat)                                      

|-------------------------------------------------
|-------------------------------------------------
|---------------------------------7-7-7-7-6-6-6-6-
|-----------------7-7-7-7-9-9-9-9-7-7-7-7-6-6-6-6-
|-\/\/\/\/\/\/\/\-7-7-7-7-9-9-9-9-5-5-5-5-4-4-4-4-
|-----------------5-5-5-5-7-7-7-7-----------------
 rhythm (Callum, after 3x lead)                                              

Verse
|-5-------5-------5-------5--
|-5-------5-------5-------5--
|-6-------6-------6-------6--
|----------------------------
|----------------------------
|----------------------------
 (lead)                                                                 

|---------------------------------
|---------------------------------
|-----------------7-7-7-7-6-6-6-6-
|-7-7-7-7-9-9-9-9-7-7-7-7-6-6-6-6-
|-7-7-7-7-9-9-9-9-5-5-5-5-4-4-4-4-
|-5-5-5-5-7-7-7-7-----------------
 (rhythm, palm mute)                                                    

Verse 2 
|-x-5-x-5-x-7-x-7-x-9-x-9-x-7-x-7-
|-x-5-x-5-x-5-x-5-x-5-x-5-x-5-x-5-
|---------------------------------
|---------------------------------
|---------------------------------
|---------------------------------
(lead)       
rhythm plays the same as first verse                            
[ Tab from: http://www.guitartabs.cc/tabs/s/spoonerism/options_tab.html ]
Chorus
|---------------------------------------------------------------------------
|---------------------------------------------------------------------------
|---------------------------------------------------6-----------7------6----
|------------------7--------------------------------6-----------7------6----
|-2-2-2-2-2-2-2-2--7--------------------------------4-----------5------4----
|-0-0-0-0-0-0-0-0--5--------------------------------------------------------
  (both)           I.... wanna see you again, but I can't do anything, we're   

---------------------------------------------------------------------------
---------------------------------------------------------------------------
----------7----------------------------------------------6-----------7-----
----------7--------7-------------------------------------6-----------7-----
----------5--------7-------------------------------------4-----------5-----
-------------------5-------------------------------------------------------
 not even friends, I......... wanna see you again, but I can't do anything,   

------------------------
------------------------
-6--------------7-------
-6--------------7-------
-4--------------5-------
------------------------
 we're not even friends                                                       

Solo
|-7p5p0-7p5p0-7p5p0-7p5p0-7p5p0-7p5p0-7p5p0-7p5p0-9p7p0-9p7p0-9p7p0-9p7p0-
|-------------------------------------------------------------------------
|-------------------------------------------------------------------------
|-------------------------------------------------------------------------
|-------------------------------------------------------------------------
|-------------------------------------------------------------------------

-9p7p0-9p7p0-9p7p0-9p7p0-10p9p7-10p9p7-10p9p7-10p9p7-5-x-7-x10-x-12-x-14--17--
------------------------------------------------------------------------------
------------------------------------------------------------------------------
------------------------------------------------------------------------------
------------------------------------------------------------------------------
------------------------------------------------------------------------------
                                                                              
-17-14------------------|
-------17-14------------|
-------------16-14-14/--|
------------------------|
------------------------|
------------------------|
                                                                              
Outro
|-5-5-5-5-4-4-4-4-2-2-2-2-4--4--5-
|-5-5-5-5-4-4-4-4-2-2-2-2-4--4--5-
|-5-5-5-5-4-4-4-4-2-2-2-2-5--5--6-
|---------------------------------
|---------------------------------
|---------------------------------                                

any questions? andrewbiles@hotmail.com, also download Spoonerism songs etc.
from their site http://www.spoonerism.curvedspaces.com/
Comments