Spoon - Stay Don't Go Chords & Tabs

 

Stay Don't Go Chords & Tabs

Spoon Chords & Tabs

Version: 1 Type: Tab 0 ratings
1 star 2 stars 3 stars 4 stars 5 stars
comments

Stay Don't Go Tab

 ---------------------
 | Stay don't go     |
 | by: Spoon	     |
 ---------------------

I really enjoy this song and decided it wasn't too hard and I'd try my first Tab so 
if it's inaccurate, hopefully someone can build off it. Its sounds pretty good though. You 
play it really on/off like between chords. It has a very jerky beat, very defined.

  Tuning: Standard

This progression is like the whole song
[ Tab from: http://www.guitartabs.cc/tabs/s/spoon/stay_dont_go_tab.html ]
  |--------------------------------------|
  |--------------------------------------|
  |------5-5-5---7-7-7-------------------|
  |------5-5-5-07-7-7---7-7-7---7-7-7---|
  |--0h3-3-3-3---5-5-5--7-7-7---7-7-7---|
  |--------------------0h5-5-50h5-5-5---|

After the first "Stay don't go" start ending that riff with this

  |------------|
  |------------|
  |------------|
  |------------|
  |------------|
  |-0-5-7~9~12-|

email: bobnifty@gmail.com
Comments