Spoon - Loss Leaders Chords & Tabs

 

Loss Leaders Chords & Tabs

Spoon Chords & Tabs

Version: 1 Type: Chords 0 ratings
1 star 2 stars 3 stars 4 stars 5 stars
comments

Loss Leaders Chords

   
Spoon
Loss Leaders

C/CM7 D
I get up and all i've got
C/CM7 D
On my mind is thinking up brand new
C/CM7 D G D
Chords
C/CM7 D
Then fred hampton comes on and
C/CM7 D
Takes it all back it brings me back to 
C/CM7 D G D
Earth


Em (0,2,2,0) Em+7 (0,2,1,0) Em7 (0,2,0,0)
(also: high E and B on the 12th fret)
Sha - no ?ma
A C
Everything i knew
D
And loved about you
Em Em+7 Em7
Sha - no ?ma
A C
So i could get through
D
I've put them all away

(see end for "bridge" part)

[ Tab from: http://www.guitartabs.cc/tabs/s/spoon/loss_leaders_crd.html ]
C B-C B A-B E E
C/CM7 D
Loss leaders, yeah, it's just the
C/CM7 D
Sounds that you make go right inside of
C/CM7 D G D
Me
C/CM7 D
It makes us immortal like
C/CM7 D
at cannibal club takes all our
C/CM7 D G D
Icons on


Em Em+7 Em7
Sha - no ?ma
A C
Everything i knew
D
And loved about you
Em Em+7 Em7
Sha - no ?ma
A C
So i could get through
D
I've put them all up
Em Em+7 Em7
Sha - no ?ma

F B
Tears fell down
Inside

------------------------
------------------------
------------------------
------0----4-----0------
---2--------------------
-3-------3----3------3--


------------------------
------------------------
-------------------0----
------0----4------------
---2--------------------
-2-------2----2------2--


-----------------------------------------
-----------------------------------------
------------4----0----2----0--------0----
------2-------------------------4--------
---2-------------------------------------
-0-------0----0----0----0----0----0----0-


Fred tried to change their ways 'til he got some
bulletholes now 
he lives in outer space.



(verse "solo" part)
E -0-0-0-0-0-0-0-0-0-2-2-2-2-2-2-2-2- /
-3-3-3-3-3-2-2-2-2-2-
B -1-1-0-1-1-0-1-1-0-3-3-3-3-3-3-3-3- /
-3-3-3-3-3-2-2-2-2-2-
Comments