Spoon - All The Pretty Girls Go To The City Chords & Tabs

 

All The Pretty Girls Go To The City Chords & Tabs

Spoon Chords & Tabs

Version: 1 Type: Tab

All The Pretty Girls Go To The City Tab

All the Pretty Girls Go to the City - Spoon

Intro/Verse - probably use your neck pickup
e|--------------------|
B|--------------------|
G|--------------------|
D|--------------------|
A|--------------------|
E|---7--x-7--x-7\-----|  (Palm mute the low E)
[ Tab from: http://www.guitartabs.cc/tabs/s/spoon/all_the_pretty_girls_go_to_the_city_tab.html ]
Chorus (with The Sweetest Tremolo Ever)
e|------------------||------------------|
B|------------------||-----7---7--------|
G|---7-9-6-9-6\4----||---7---6---6\4----|
D|------------------||------------------|
A|------------------||------------------|
E|------------------||------------------|
     doo doo doo d-doo

e|-----------------||-----------------|
B|-----------------||-----------------|
G|-----------------||-----------------|
D|-----------------||-----------------|
A|---5-5-4-5-4\2---||--5-7-4-7-4\2----|
E|-----------------||-----------------|
                                           (variation)

e|---2--2--2-------|
B|---3--3--3-------|
G|---4--4--4-------|
D|-----------------|
A|-----------------|
E|-----------------|

End:
e|--3--2----3--2---|
B|--3--3----3--3---|
G|--4--4----4--4---|
D|-----------------|
A|-----------------|
E|-----------------|

Enjoy