Spoon - 10 20 Am Chords & Tabs

 

10 20 Am Chords & Tabs

Spoon Chords & Tabs

Version: 1 Type: Tab 0 ratings
1 star 2 stars 3 stars 4 stars 5 stars
comments

10 20 Am Tab

   
This is from memory so it may have a few rhythmic problems you can correct by listening 
the song.

Intro
E-------------------|
B------2---3--------|
G----------2---2----|
D----2-----------2--|
A--0-----0---0------|
E-------------------|

Verse

      A       Am
1020 Am 1020 Am
            Dm             Am
When will I ever see you again
      C
1020 Am
            Dm               A
When will I ever see you again

:Repeat for second part of verse:

E--------------------------------------------|
B----------------------------2---2---2---2---|
G----------------------------2---2---2---2---| x2
D--7---5---3---2---0---0-1-2-2-2-2-2-2-2-2---|
A--0-0-0-0-0-0-0-0---4-----0-0-0-0-0-0-0-0---|
E--------------------------------------------|
'Cause I remember everything you did
And I remember everything you did

E-----------------------------------------------------|
B----2-2-2-2----2---2---2---2-----------2---2---2---2-|
G----2-2-2-2----2---2---2---2-----------2---2---2---2-|
D-------------2-2-2-2-2-2-2-2-0---0-1-2-2-2-2-2-2-2-2-|
A----3-2-3-2--0-0-0-0-0-0-0-0---4-----0-0-0-0-0-0-0-0-|
E-----------------------------------------------------|
Everything you were, everything you said
[ Tab from: http://www.guitartabs.cc/tabs/s/spoon/10_20_am_tab.html ]
E----------------------------|
B----2-2-2-2---2---2---2---2-|
G----2-2-2-2---2---2---2---2-|
D------------2-2-2-2-2-2-2-2-|
A----3-2-3-2-0-0-0-0-0-0-0-0-|
E----------------------------|

E--------------------------------------------|
B----------------------------2---2---2---2---|
G----------------------------2---2---2---2---|
D--7---5---3---2---0---0-1-2-2-2-2-2-2-2-2---|
A--0-0-0-0-0-0-0-0---4-----0-0-0-0-0-0-0-0---|
E--------------------------------------------|
Yeah, I remember everything you did

Soloish part

E-0---------------------------0--1---0---3-3-3----------------|
B-2-------2-0-----1-------1-3----3---3---3-3-3-------1----1---|
G-2-------2-------2-------2------2---2---2-2-2-------2----2---|
D-2---2---2-------2---2---2----0-0-0---0-0-----0---2----------|
A-0-0---0-0---0-0-0-0---0-0----------------------0------0---0-|
E-------------------------------------------------------------|

E-------------0---1---0---0-0-0---|
B-1-------1-3-----2---3---3-3-3---|
G-0-------0-------3---2---2-2-2---|
D-2---2---2-----0-0-0-0-0-0-------|
A-3-3---3-3---------------------0-|
E---------------------------------|

The guitar plays the solo again over the last verse

1020 Am
When will I ever see you again
1020 Am
When will I ever see you again

Outro

E---------------------------------------------------------|
B--2---2---2---2---2---2---2-0---1------------------------|
G--2---2---2---2---2---2---2-----2------------------------|
D--------------------------2-----2------------------------|
A----0---0---0---0---0---0-0-----0------------------------|
E---------------------------------------------------------|
Comments