Spontaneous Destruction - Telebrick Chords & Tabs

 

Telebrick Chords & Tabs

Spontaneous Destruction Chords & Tabs

Version: 3 Type: Tab 0 ratings
1 star 2 stars 3 stars 4 stars 5 stars
comments

Telebrick Tab

   
Telebrick

Intro

E--------------------------------|
B--------------------------------|
G--------------------------------|
D7-7-7-7-7-7-7-7-3-3-3-3-5-5-5-5-|
A7-7-7-7-7-7-7-7-3-3-3-3-5-5-5-5-|
E5-5-5-5-5-5-5-5-1-1-1-1-3-3-3-3-|

Verse

same as above only p.m

Chorus

E--------------------------------|
B--------------------------------|
G5-5-5-5-3-3-3-3-----------------|
D5-5-5-5-3-3-3-3-3-3-3-3-5-5-5-5-|
A3-3-3-3-1-1-1-1-3-3-3-3-5-5-5-5-|
E----------------1-1-1-1-3-3-3-3-|

Solo

E5-7--5-7-5-7--1-3--3-5-3-5----|
B---5--------5----1--------3---|  X2


E--12--12--12--12-8-8--10-10---|
B10--10--10--10--6-6-6-8-8-----|    X2
[ Tab from: http://www.guitartabs.cc/tabs/s/spontaneous_destruction/telebrick_tab_ver_3.html ]
E55887755115337
B55887755116337 X2

Bridge

E------------------------|
B------------------------|
G------------------------|
D77xxxx77xxxx33xxxx55xxxx
A77xxxx77xxxx33xxxx55xxxx
E55xxxx55xxxx11xxxx33xxxx

Words
verse1
Floors, floors floors, windows and doors X4
A                    F        G
chorus1
  Skirting boards and carpets tooX4
C          Bb                 F    G
verse2
carrots, carrots, carrots, potatoes and sweetcornX4
chorus2
assparigus and peas too X4
solo
bridge
verse3
vans, vans, vans, lorries and trainsX4
chorus3
ferries and scooters tooX4

Play verse tune and die out  Spontaneous Destruction are Stephen, Jonny, Toke, Dee and Iain
Comments