Spontaneous Destruction - Diluted Piss Chords & Tabs

 

Diluted Piss Chords & Tabs

Spontaneous Destruction Chords & Tabs

Version: 1 Type: Bass Tab 0 ratings
1 star 2 stars 3 stars 4 stars 5 stars
comments

Diluted Piss Bass Tab

   
Diluted Piss

Intro
G-5-5-5-5-5-5-5-5-------------------------------------------------|
D-5-5-5-5-5-5-5-5-5-5-5-5-5-5-5-5-7-7-7-7-7-7-7-7-3-3-3-3-3-3-3-3-|
A-3-3-3-0-3-0-3-0-5-5-5-5-5-5-5-5-7-7-7-7-7-7-7-7-3-3-3-3-3-3-3-3-|
E-----------------3-3-3-0-3-0-3-0-5-5-5-0-5-0-5-0-1-1-1-0-1-0-1-0-|
P.M________________________________________________________________|

Verse=same only without the open notes, listen to Cd for placement

Chorus

G-9-9-9-9-9-9-9-9-7-7-7-7-7-7-7-7---------------------------------|
D-9-9-9-9-9-9-9-9-7-7-7-7-7-7-7-7-7-7-7-7-7-7-7-7-3-3-3-3-5-5-5-5-|
A-7-7-7-7-7-7-7-7-5-5-5-5-5-5-5-5-7-7-7-7-7-7-7-7-3-3-3-3-5-5-5-5-|
E---------------------------------5-5-5-5-5-5-5-5-1-1-1-1-3-3-3-3-|
[ Tab from: http://www.guitartabs.cc/tabs/s/spontaneous_destruction/diluted_piss_btab.html ]
Trumpet solo (guitar plays chorus bit)

A-7-8-7-5-3-3-3-2-3-10-10-10-8-7-8-8-8-10-10

Slow bit = verse only each chord played once and held

Lyrics

I went to see the doctor today
He found that I like to drink my own urine all the time
He suggested that I reconsider what I'm drinking
Milk or coke would be fine

Chorus
But I don't know what to do
I can't stop drinking my own diluted piss

Oh so you actually dilute before you consume it
Well that's not as bad as I first thought
To tell you the truth I do the exact same thing
I know I shouldn't cos I'm a doctor but what the hell

Chorus

Slow bit
I got some bad news today
Doctor Woctor had passed away
He drank his own piss without diluting it first
He must have been lying... what a dick

Chorus
Comments