Spongecola - Jeepney Chords & Tabs

 

Jeepney Chords & Tabs

Spongecola Chords & Tabs

Version: 1 Type: Chords 0 ratings
1 star 2 stars 3 stars 4 stars 5 stars
comments

Jeepney Chords

Band: Spongecola
Song: Jeepney
Tabbed By: kerrha11@yahoo.com

Verse1:

e|------2-------3-----|
B|------3-------3-----|
G|------2-------0-----|
D|------0-------0-----|
A|------x-------2-----|
E|------x-------3-----|

Refrain:

e|-------3--------0---|
B|-------3--------2---|
G|-------0--------2---|
D|-------0--------2---|
A|-------2--------0---|
E|-------3--------x---|


Chorus:



e|-----2--------0------2-----3|
B|-----3--------2------3-----3|
G|-----2--------2------4-----0|
D|-----0--------2------4-----0|
A|-----x--------0------2-----2|
E|-----x--------x------0-----3|


Lyrics

Verse1:
[ Tab from: http://www.guitartabs.cc/tabs/s/spongecola/jeepney_crd.html ]
Bumaba ako sa jeepney
kung saan tayo dating magkatabi
magkahalik ang pisngi nating dalawa (nating dalawa)
panyo mo sa aking bulsa
Ohh ang kahapon ay naroon pa rin
and tawa natin humahalay
sa init nating dalawa

Refrain:

At ngayo'y nawala na (wala na)
Ikaw ay lumayo na (lumayo na)

Chorus:

Naaalala ko ang mga gabing
nakahiga sa ilalim ng kalawakan
naaalala ko ang mga gabing magkatabi sa ulan


Verse2:

Kulay ng iyong ngiti
tikwas ng iyong buhok
ang lambot ng iyong labi (ng iyong labi)
kahit anino mo sa malayo
ay nais masulyapan
upang mapawi ang lamig

Repeat Refrain
Then Chorus


Paulit-ulit lang yan hanggang sa matapos ang kanta
pakinggan nyo n lang yung CD para makuha nyo ung strumming!!!!
MORE POWER TO SPONGECOLA FANS!!!!!!!1







Comments